Oops, an error
Loading. Please wait.

The Flood Tab

version 7
4,698 views 1 this week
4 commentsread comments
1 2 3 4 5
accurate
x 4
add to favorites
launch autoscroll
font size
0
reset
how to read this tab
guitar tuner
Tab Pro tools
  • play this tab
  • loop segment
  • change instrument
  • show fretboard
  • metronome
×
Best way to learn
"The Flood"
Autoscroll
slow
fast
+/-
esc
set tempo
stop
Contributor
Here's tab for those who wants to play it on Drop D, so that u wont change the
tuning anymore during gigs.
This is also an easy way of playing the song.
Good for rhythm guitar play.

Tuning: Drop D
Tabbed by: BK-201, Bloodline Production Philippines

Song Title: The Flood
Artist/Band: Escape The Fate
Album: This War is Ours

==========================================================================

Intro:

|---------------|
|---------------|
|---------------|
|------7-7-777--|
|------7-7-777--|
|--/---7-7-777--|

|------------------------------------------------|
|------------------------------------------------|
|------------------------------------------------|
|--5-5-----------5-5-----------1-1-111---7^------|
|--5-5-----5-----5-5-----5-----1-1-111-----------|
|--5-5-5h7---8---5-5-5h7---8---1-1-111------12/--|

|--------------------------------------------|
|--------------------------------------------|
|--------------------------------------------|
|--5-5-----------5-5-----------7-7777-7-777--|
|--5-5-----5-----5-5-----5-----7-7777-7-777--|
|--5-5-5h7---8---5-5-5h7---8---7-7777-7-777--|

Verse:

|-----------------------------------------------------|
|-----------------------------------------------------|
|----------------------------------3-33-333-----------|
|--5----------1---------0----------3-33-333-5-55-555--|
|--5-55555555-1-1111111-0-00000000-1-11-111-5-55-555--|
|--5-55555555-1-1111111-0-00000000----------5-55-555--|
     ........   .......   ........

|------------------------------------------------------------------|
|------------------------------------------------------------------|
|-----------------------------------------------3-33-333-----------|
|--5-5--5--5--555-1-1--1--1--111-0-0--0--0--000-3-33-333-5-55-555--|
|--5-5--5--5--555-1-1--1--1--111-0-0--0--0--000-1-11-111-5-55-555--|
|--5-5--5--5--555-1-1--1--1--111-0-0--0--0--000----------5-55-555--|

|---------------------------------|
|---------------------------------|
|---------------------------------|
|--1--------111-33-------3-3-5-5--|
|--1-111111-111-33333333-3-3-5-5--|
|--1-111111-111-33333333-3-3-5-5--|
     ......       ......

Chorus:

|----------------------------------------|
|----------------------------------------|
|------------33333333--------------------|
|--555555555-33333333-11111111-00000000--|
|--555555555-11111111-11111111-00000000--|
|--555555555----------11111111-00000000--|

|----------------------------------------|
|----------------------------------------|
|------------33333333----------77777777--|
|--555555555-33333333-11111111-77777777--|
|--555555555-11111111-11111111-55555555--|
|--555555555----------11111111-----------|

Pre-Verse:

|----------------------------------------------------|
|----------------------------------------------------|
|----------------------------------------------------|
|--5-5-----------5-5-----------1-1-111---7^--5^------|
|--5-5-----5-----5-5-----5-----1-1-111---------------|
|--5-5-5h7---8---5-5-5h7---8---1-1-111----------12/--|

|--------------------------------------------|
|--------------------------------------------|
|--------------------------------------------|
|--5-5-----------5-5-----------7-7777-7-777--|
|--5-5-----5-----5-5-----5-----7-7777-7-777--|
|--5-5-5h7---8---5-5-5h7---8---7-7777-7-777--|

Verse:

|-----------------------------------------------------|
|-----------------------------------------------------|
|----------------------------------3-33-333-----------|
|--5----------1---------0----------3-33-333-5-55-555--|
|--5-55555555-1-1111111-0-00000000-1-11-111-5-55-555--|
|--5-55555555-1-1111111-0-00000000----------5-55-555--|
     ........   .......   ........

|-----------------------------------------------------------------------------------|
|-----------------------------------------------------------------------------------|
|--------------------------------------------------------------3-33-333-------------|
|--5-5--5--5--555-1--------------------------1--0-0--0--0--000-3-33-333-5-55-555----|
|--5-5--5--5--555-1-111-111-111-111-111-111-11--0-0--0--0--000-1-11-111-5-55-555----|
|--5-5--5--5--555-1-111-111-111-111-111-111-11--0-0--0--0--000----------5-55-555----|
                    ... ... ... ... ... ... .

|---------------------------------|
|---------------------------------|
|---------------------------------|
|--1--------111-33-------3-3-5-5--|
|--1-111111-111-33333333-3-3-5-5--|
|--1-111111-111-33333333-3-3-5-5--|
     ......       ......

Chorus:

|----------------------------------------|
|----------------------------------------|
|------------33333333--------------------|
|--555555555-33333333-11111111-00000000--|
|--555555555-11111111-11111111-00000000--|
|--555555555----------11111111-00000000--|

|----------------------------------------|
|----------------------------------------|
|------------33333333----------77777777--|
|--555555555-33333333-11111111-77777777--|
|--555555555-11111111-11111111-55555555--|
|--555555555----------11111111-----------|

Bridge:

(Note: If u manage to play it in G,the pinch harmonic part. Its all fine,
it does have nice sound too. Look at the tab below.)

|-----------------------------|    |--------------------------|
|-----------------------------|    |--------------------------|
|-----------------------------| or |--------------------------|
|---5^------------5^----------|    |--5------------5----------|
|------555-555-5-----555-555--|    |--5-555-555-5--5-555-555--|
|------555-555-5-----555-555--|    |--5-555-555-5--5-555-555--|
       ... ... .     ... ...            ... ... .    ... ...

(continuation...)

|---------------------------------------------------|
|---------------------------------------------------|
|----------------------------------------------3----|
|---5^------------5^-----------5^----------------4--|
|------555-555-------555-555-----555-555---2-4------|
|------555-555-5-----555-555-5---555-555-5----------|
       ... ... .     ... ... .   ... ... .

|------------------------------------------------------|
|------------------------------------------------------|
|------------------------------------------------------|
|---5^------------5^-----------5^-----------5-5-5------|
|------555-555-------555-555-----555-555----5-5-5------|
|------555-555-5-----555-555-5---555-555-5--5-5-5------|
       ... ... .     ... ... .   ... ... .

|---------------------------------------------------|
|---------------------------------------------------|
|----------------------------------------------3----|  (x3)
|---5^------------5^-----------5^----------------4--|
|------555-555-------555-555-----555-555---2-4------|
|------555-555-5-----555-555-5---555-555-5----------|
       ... ... .     ... ... .   ... ... .

|--------------------------------------------------------------------------|
|--------------------------------------------------------------------------|
|--------------------------------------------------------------------------|
|---5^------------5^-----------5^-----------8-10-8---8-10-8-------8--------|
|------555-555-------555-555-----555-555----8-10---9-8-10---9-------9~--7^-|
|------555-555-5-----555-555-5---555-555-5--8-10-----8-10-----8-10---------|
       ... ... .     ... ... .   ... ... .

Chorus:

|----------------------------------------|
|----------------------------------------|
|---------3-3-3-3-3-3-333---------77777--|
|--5------3-3-3-3-3-3-333---1-1---77777--|
|--5------1-1-1-1-1-1-111---1-1---55555--|
|--5------------------------1-1----------|

|----------------------------------------|
|----------------------------------------|
|------------33333333----------77777777--|
|--555555555-33333333-11111111-77777777--|
|--555555555-11111111-11111111-55555555--|
|--555555555----------11111111-----------|


|----------------------------------------|
|----------------------------------------|
|------------33333333--------------------|
|--555555555-33333333-11111111-00000000--|
|--555555555-11111111-11111111-00000000--|
|--555555555----------11111111-00000000--|

|----------------------------------------|
|----------------------------------------|
|------------33333333----------77777777--|
|--555555555-33333333-11111111-77777777--|
|--555555555-11111111-11111111-55555555--|
|--555555555----------11111111-----------|

|----------------------------------------|
|----------------------------------------|
|------------33333333--------------------|
|--555555555-33333333-11111111-00000000--|
|--555555555-11111111-11111111-00000000--|
|--555555555----------11111111-00000000--|

|----------------------------------------|
|----------------------------------------|
|------------33333333----------77777777--|
|--555555555-33333333-11111111-77777777--|
|--555555555-11111111-11111111-55555555--|
|--555555555----------11111111-----------|


Outro:

|---------------------------------------------------|
|---------------------------------------------------|
|----------------------------------------------3----|
|---5^------------5^-----------5^----------------4--|
|------555-555-------555-555-----555-555---2-4------|
|------555-555-5-----555-555-5---555-555-5----------|
       ... ... .     ... ... .   ... ... .

|-----------------------------------------------------------------------------|
|-----------------------------------------------------------------------------|
|-----------------------------------------------------------------------------|
|---5^------------5^-----------5^-----------8-10-8---8-10-8---8-10-8------8---|
|------555-555-------555-555-----555-555----8-10---9-8-10---9-8-10---9------9-|
|------555-555-5-----555-555-5---555-555-5--8-10-----8-10-----8-10----8-10----|
       ... ... .     ... ... .   ... ... .
comments
print report bad tab
4 comments total. Showing first comments.
0 reply
BK-201 wrote on January 23 2009, 07:02 pm

in the 2nd verse
|-----------------------------------------------------|
|-----------------------------------------------------|
|----------------------------------3-33-333-----------|
|--5----------1---------0----------3-33-333-5-55-555--|
|--5-55555555-1-1111111-0-00000000-1-11-111-5-55-555--|
|--5-55555555-1-1111111-0-00000000----------5-55-555--|
........ ....... ........

|------------------------------------------------------------------|
|-----------------------------------------------------------------|
|----------------------------------------------3-33-333-----------|
|--5-5--5--5--555-1-----------1-0-0--0--0--000-3-33-333-5-55-555--|
|--5-5--5--5--555-1-111-(6x)-11-0-0--0--0--000-1-11-111-5-55-555--|
|--5-5--5--5--555-1-111------11-0-0--0--0--000----------5-55-555--|
... .

+1 reply
Grave_ARMS wrote on January 23 2009, 09:41 pm

wow!
now i can play The Flood easier ^_^

+1 reply
Ryukuj wrote on January 26 2009, 05:29 pm

thank you very much BK-201
i need this tab in drop d
You aRE my HErO XD
lol i love u
10 stars **********

I want to post or [tab]
guest
You may want to rate the tab now too:
select rating
Please do not post tabs as comments. Select "correction" instead!