Oops, an error
Loading. Please wait.

The Flood Tab

version 8
5,601 views 1 this week
no commentswrite comment
1 2 3 4 5
please rate
add to favorites
launch autoscroll
font size
0
reset
how to read this tab
guitar tuner
Autoscroll
slow
fast
+/-
esc
set tempo
stop
Help us to improve Ultimate-Guitar.com Take our survey!
×
Author
Difficulty
Tuning
intermediate
C G C F A D
ok, so i cant really find tabs that i like for this song, so i took the one i liked the
and i made some little adjustments to it. it sounds right to me. not 100% but it works
me :P any corections you may have on it would be greatlly apretiated :) if theres 
you cant do like the drop tuning or the pinch harmonics, talk to me and ill explain it
you :) alright well, good luck, have fun :P

Tuning: Drop C

\ = pick scrape
. = palm mute
* = pinch harmonic
/ =slide up
h =hammer on
p =pull off

Intro
D|----------------------------------------------------------------------|
A|----------------------------------------------------------------------|
F|-------------------------------------44--4*---------------------------|
C|----9-9-99-----------------------333-33---------7-7-------------------|
G|-\\-9-9-99------7-7-------7*--x2-333-55---------7-7-------7*-------x2-|
C|-\\-9-9-99------7-7--7*h9----9---333-33-----12/-7-7--7*h9-----9-------|
            if you can do those pinch harmonics here it sounds
            allot better, but if you cant it still sounds alright
            without them

D|---------------------|
A|---------------------|
F|-44444444------------|
C|-xxxxxxxx--6-6-66----|
G|-22222222--6-6-66----|
C|-----------6-6-66----|

Verse
D|----------------------------------------------------------------------|
A|----------------------------------------------------------------------|
F|-------------------------------------------44444444-1313131313131313--|
C|-7777777777777-3333333333333-0000000000000-xxxxxxxx--x-x-x-x-x-x-x-x--|
G|-7777777777777-3333333333333-0000000000000-22222222-1111111111111111--|
C|-7777777777777-3333333333333-0000000000000----------------------------|
    ............  ............  ............

D|---------------------------------------------------------------|
A|---------------------------------------------------------------|
F|------------------------------------44444444-1313131313131313--|
C|-7--7--77--3--3--3--33--0--0--0--00-xxxxxxxx--x-x-x-x-x-x-x-x--|
G|-7--7--77--3--3--3--33--0--0--0--00-22222222-1111111111111111--|
C|-7--7--77--3--3--3--33--0--0--0--00----------------------------|
   .  .  ..     .  .  ..     .  .  ..

D|-----------------------------------|
A|-----------------------------------|
F|-----------------------------------|
C|-00000000000000-3-55555555-55-66-7-|
G|-00000000000000-3-55555555-55-66-7-|
C|-00000000000000-3-55555555-55-66-7-|
    .............   ........

Chorus
D|------------------------------------------------------------|
A|------------------------------------------------------------|
F|------------------5555555555555555-101010101010101010101010-|
C|-7777777777777777-5555555555555555-101010101010101010101010-|
G|-7777777777777777-3333333333333335--8-8-8-8-8-8-8-8-8-8-8-8-|
C|-7777777777777777-------------------------------------------|

D|---------------------------|
A|---------------------------|
F|-99999999-1313131313131313-|
C|-99999999--x-x-x-x-x-x-x-x-|
G|-77777777-1111111111111111-|
C|---------------------------|

D|----------------------------------------------------------------|
A|----------------------------------------------------------------|
F|------------------5555555555555555-----101010101010101010101010-|
C|-7777777777777777-5555555555555555-000-101010101010101010101010-|
G|-7777777777777777-3333333333333335-000--8-8-8-8-8-8-8-8-8-8-8-8-|
C|-7777777777777777------------------000--------------------------|
                                     ...
D|--------------|
A|--------------|
F|-99999999-13/-|
C|-99999999--x--|
G|-77777777-11/-|
C|--------------|

Repeat Intro

Verse 2
D|----------------------------------------------------------------------|
A|----------------------------------------------------------------------|
F|-------------------------------------------44444444-1212121212121212--|
C|-7777777777777-3333333333333-0000000000000-xxxxxxxx--x-x-x-x-x-x-x-x--|
G|-7777777777777-3333333333333-0000000000000-22222222-1111111111111111--|
C|-7777777777777-3333333333333-0000000000000----------------------------|
    ............  ............  ............

D|------------------------------------------------------------------------|
A|------------------------------------------------------------------------|
F|----------------------------------------------44444444-1212121212121212-|
C|-7--7--77-3-333-333-333-333-333-3-0--0--0--00-xxxxxxxx--x-x-x-x-x-x-x-x-|
G|-7--7--77-3-333-333-333-333-333-3-0--0--0--00-22222222-1111111111111111-|
C|-7--7--77-3-333-333-333-333-333-3-0--0--0--00---------------------------|
   .  .  ..   ... ... ... ... ...   .  .  .  ..

D|-----------------------------------|
A|-----------------------------------|
F|-----------------------------------|
C|-00000000000000-3-55555555-55-66-7-|
G|-00000000000000-3-55555555-55-66-7-|
C|-00000000000000-3-55555555-55-66-7-|
    .............   ........


Repeat Chorus


D|-------------------------------|or if that last  D|-------------|
A|-------------------------------|part is to much  A|-------------|
F|-------------------------------|of a stretch for F|-----5-------|
C|-2*------------x3-------10-2---|the fingers      C|-------2-----|
G|-----000-000-0------0-3--------|try this         G|-0-3---------|
C|-------------------------------|                 C|-------------|
       ... ... .

D|------------------------|
A|------------------------|
F|------------------------|
C|---2*----------x3---000-|
G|-----000-000-0------000-|
C|--------------------000-|
       ... ... .      ...

D|-------------------------------|
A|-------------------------------|
F|-------------------------------|
C|---2*----------x3-------10-3---|  x2
G|-----000-000-0------0-3--------|
C|-------------------------------|
       ... ... .

D|----------------------------------------|
A|----------------------------------------|
F|----------------------------------------|
C|------777----777----777------10-2---x2--|
G|----7-777--7-777--7-777--0-3------------|
C|----7-777--7-777--7-777-----------------|
        ...    ...    ...


D|----------------------------------| the 1h4p1 is reapeated without
A|----------------------------------| stopping,continuouse hammering and
F|-------------------------1h4p1-x16| pulling of, without striking the
C|---------10-2--x3-----------------| string a second time.
G|-----0-3--------------------------|
C|----------------------------------|

Final Chorus
D|----------------------------------------------------------------|
A|----------------------------------------------------------------|
F|----------------------------------5555555555555555----10-1010/--|
C|-5-5-66-7/------------------------5555555555555555----10-1010/--|
G|-5-5-66-7/------------------------3333333333333333-----8--8-8/--|
C|-5-5-66-7/------------------------------------------------------|

D|------------------|
A|------------------|
F|-1010---99999999--|
C|-1010---99999999--|
G|--8-8---77777777--|
C|------------------|

D|----------------------------------------------------------------|
A|----------------------------------------------------------------|
F|------------------5555555555555555-----101010101010101010101010-|
C|-7777777777777777-5555555555555555-000-101010101010101010101010-|
G|-7777777777777777-3333333333333335-000--8-8-8-8-8-8-8-8-8-8-8-8-|
C|-7777777777777777------------------000--------------------------|
                                     ...

D|---------------------------|
A|---------------------------|
F|-99999999-1313131313131313-|
C|-99999999--x-x-x-x-x-x-x-x-|
G|-77777777-1111111111111111-|
C|---------------------------|

D|------------------------------------------------------------|
A|------------------------------------------------------------|
F|------------------5555555555555555-101010101010101010101010-|
C|-7777777777777777-5555555555555555-101010101010101010101010-|
G|-7777777777777777-3333333333333335--8-8-8-8-8-8-8-8-8-8-8-8-|
C|-7777777777777777-------------------------------------------|

D|---------------------------|
A|---------------------------|
F|-99999999-1313131313131313-|
C|-99999999--x-x-x-x-x-x-x-x-|
G|-77777777-1111111111111111-|
C|---------------------------|


D|----------------------------------------------------------------|
A|----------------------------------------------------------------|
F|------------------5555555555555555-----101010101010101010101010-|
C|-7777777777777777-5555555555555555-000-101010101010101010101010-|
G|-7777777777777777-3333333333333335-000--8-8-8-8-8-8-8-8-8-8-8-8-|
C|-7777777777777777------------------000--------------------------|
                                     ...
D|---------------|
A|---------------|
F|-99999999-13/--|
C|-99999999--x---|
G|-77777777-11/--|
C|---------------|

Outro
D|-------------------------------|
A|-------------------------------|
F|-------------------------------| x2
C|---2*----------x3-------10-2---|
G|-----000-000-0------0-3--------|
C|-------------------------------|
       ... ... .


D|--------------------|
A|--------------------|
F|--------------------|
C|---------10-2--x3---|
G|-----0-3------------|
C|--------------------|
Suggest correction
What's this?
You can suggest a correction to this tab. Community and Mods will review your correction and vote to approve or reject it.
comments
We did not receive enough feedback on this tab! Please rate:
print report bad tab
1 2 3 4 5
guest
You may want to rate the tab now too:
select rating
Please do not post tabs as comments. Select "correction" instead!