Oops, an error
Loading. Please wait.

The Guillotine Tab

version 1
version 1

Solo

Interactive

4,894 views 6 this week
2 commentsread comments
1 2 3 4 5
1 last vote to show rating
add to favorites
launch autoscroll
font size
0
reset
how to read this tab
guitar tuner
Autoscroll
slow
fast
+/-
esc
set tempo
stop
Help us to improve Ultimate-Guitar.com Take our survey!
×
Author
Difficulty
Tuning
intermediate
C G C F A D
There isn't a correct tab on this site, so I made one that is. The tuning is Drop C.

|12----------12~-12b14r12----16-17-19-16-17--------------------------------------------|
|12b14r12-10-------------------------------17------------------------------------------|
|---------------------------------------------16\14------------------------------------|
|---------------------------------------------------16\14------------------------------|
|---------------------------------------------------------16\14-------16\14---14\0-----|
|--------------------------------------------------------------------------------------|

|---------------------------------------------------------------------------------------|
|---------------------------------------------------------------------------------------|
|-----------6-7-9-------------7-9-11----------------9-11-13-------------------11-13-14--|
|-----6-7-9------------7-9-11---------------9-11-12------------------11-12-14-----------|
|5-7-9-----------7-9-11-------------9-11-12-----------------11-12-14--------------------|
|---------------------------------------------------------------------------------------|

|----------------------------------------------------------17-16---------|
|------------------------------------------------------------------------|
|------------------13-14-16-13-14-16(/)18-16-14~--18-16-14---------------|
|---------12-14-16-------------------------------------------------------|
|12-14-16----------------------------------------------------------------|
|------------------------------------------------------------------------|


(/) Legato Slide Up
/ Slide Down
~ Vibrato
Suggest correction
Give kudos to tab author, rate the tab!
1 2 3 4 5
comments
print report bad tab
2 comments total.
0 reply
lt22 51 Jun 30, 2009 03:34 PM

Well, for one you've got the very beginning up 1 string too high. Also on all the slides, it never goes back up a string, only down.

-1 reply
VIRUSDETECTED 163 Jul 01, 2009 03:16 PM

It doesn't matter what string it's on. It sounds correctly. The slide portion ends with just some noise, so I just put the slides in as a fill.

guest
You may want to rate the tab now too:
select rating
Wanna post a correction for this tab? Suggest correction