Oops, an error
Loading. Please wait.

The Structure Falls Tab

version 1
version 1

Whole song

Interactive

435 views 1 this week
no commentswrite comment
1 2 3 4 5
please rate
add to favorites
launch autoscroll
font size
0
reset
how to read this tab
guitar tuner
Autoscroll
slow
fast
+/-
esc
set tempo
stop
Help us to improve Ultimate-Guitar.com Take our survey!
×
Difficulty
Tuning
novice
C G C F A D
Intro (Guitar 2)
D-----------------------------------------------------------------|
A-----------------------------------------------------------------|
F---------2--------------------2----------------------------------|
C-3-2h3p2---3-2h3p2----3-2h3p2---3-3-5--3-3-3-3-3-3-3-5-33333333--| x2
G-------------------3-----------------------------------33333333--|
C-------------------------------------------------------33333333--|

Verse (Guitar 2)
D------------------------------------------------------------------|
A------------------------------------------------------------------|
F-7~7777777777777772~222222222222222-------------------------------|
C-7~7777777777777772~2222222222222225~5555555555555553~3333333-3333|
G-5~5555555555555551~1111111111111115~5555555555555553~3333333-3333|
C-----------------------------------5~5555555555555553~3333333-3333|
    ***************  ***************  ***************  *******
D----------------------------------------------------------|
A----------------------------------------------------------|
F-7~7777777777777772~222222222222222-----------------------|
C-7~7777777777777772~2222222222222225~5555555555555553-3333|
G-5~5555555555555551~1111111111111115~5555555555555553-3333|
C-----------------------------------5~5555555555555553-3333|
    ***************  ***************  ***************

Chorus

(Guitar 2)
D----------------------|
A----------------------|
F-7~---3~--------------|
C-7~---3~---5~----3~---|x2
G-5~---1~---5~----3~---|
C-----------5~----3~---|

(Guitar 1)
D-------------------------------|
A-------------------------------|
F--10-----12-9------10-----6----|
C--x-x8---x--x-x7---x--x8--x-x8-|x2
G--8------9--7------8------4----|
C-------------------------------|

After-Chorus

D---------------------------------xxxxx---|
A---------------------------------xxxxx---|
F-77777-33333---------------22222-xxxxx-3-|
C-77777-33333-5555444455555-22222-xxxxx-3-|x2
G-55555-11111-5555444455555-00000-xxxxx-1-|
C-------------5555444455555-------xxxxx---|


Verse 2

(Guitar 2)
D-------------------------------------------------------------|
A-------------------------------------------------------------|
F-------------------------------------------------------------|
C---------2--------------------2------------------------------|
G-3-2H3P2----3-2H3P2---3-2H3P2---3-3-5--3-3-3-3-3-0-0-0-0-0-0-|
C--------------------3----------------------------------------|

D-----------------------------------------------------|
A-----------------------------------------------------|
F---------2--------------------2----------------------|
C-3-2h3p2---3-2h3p2----3-2h3p2---3-3-5--3-3-3-3-3-5-3-|
G-------------------3-------------------------------3-|
C---------------------------------------------------3-|

Chorus

(Guitar 2)
D----------------------|
A----------------------|
F-7~---3~--------------|
C-7~---3~---5~----3~---|x2
G-5~---1~---5~----3~---|
C-----------5~----3~---|

(Guitar 1)
D-------------------------------|
A-------------------------------|
F--10-----12-9------10-----6----|
C--x-x8---x--x-x7---x--x8--x-x8-|x2
G--8------9--7------8------4----|
C-------------------------------|

After-Chorus

D---------------------------------xxxxx---|
A---------------------------------xxxxx---|
F-77777-33333---------------22222-xxxxx-3-|
C-77777-33333-5555444455555-22222-xxxxx-3-|x2
G-55555-11111-5555444455555-00000-xxxxx-1-|
C-------------5555444455555-------xxxxx---|

Bridge (Figure out strumming pattern)

D--------------------------------------------------------|
A--------------------------------------------------------|
F-10-12-14-15-14--10-12-9-7-10-12-14-15-14--10-12-9-10-7-|
C-X--X--x--x--x---x--x--x-x-x--x--x--x--x---x--x--x-x--x-|
G-8--10-12-13-12--8--10-7-5-8--10-12-13-12--8--10-7-8--5-|
C--------------------------------------------------------|

D-----------------|
A-----------------|
F-----------------|
C----------0~~~~~-|
G-1/5-4-/5-0~~~~~-|
C----------0~~~~~-|



Breakdown

(Guitar 2 Clean)
D-------------------------------------------------------------------|
A-------------------------------------------------------------------|
F------0------------------0----------------0---------------0--------|
C---3-----3----3-----3-------3---3-----5-----5---5-----5------5---5-|
G-11--1------1-----1---1-------1----33---3-----3----3----3------3---|
C-------------------------------------------------------------------|

D----------------------------------------------------------------|
A------------------------------------6----5----------------------|
F--------0---------------0---------------------5----5---5H7P5----|
C----7------7---7----7------7---7--------------------------------|
G-55---5------5----5---5------5----55---5---55---55---5-------55-|
C----------------------------------------------------------------|

(Guitar 1 Distor.) [Comes in with guitar 2 at the end of second time through.]
D---------------------------------------------------------------------|
A---------------------------------------------------------------------|
F---------------------------------------------------------------------|
C-------------------------------------------10-----------------10-----|
G-1/8-7---8-7-----1/8-7---8-7-----1/8-7H8P7-----7-8--1/8-7H8P8----7-8-|
C-------------8---------------10--------------------------------------|

(Guitar 1 Distor. continued, Same thing, just picked)


(Guitar 2 Distor.) [Will remain this way until the end.]
D---------------------|
A---------------------|
F-3-----5-----7-------|
C-3-X16-5-X16-7-X32---|
G-1-----3-----5-------|
C---------------------|

(Guitar 1 Distor.) [Will remain this way until the end.]
D-----------------------|
A-----------------------|
F-----------------------|
C-----------10-------10-| Over and over
G-1/8-7H8P7----8-7H8----|
C-----------------------|
Suggest correction
What's this?
You can suggest a correction to this tab. Community and Mods will review your correction and vote to approve or reject it.
comments
We did not receive enough feedback on this tab! Please rate:
print report bad tab
1 2 3 4 5
guest
You may want to rate the tab now too:
select rating
Please do not post tabs as comments. Select "correction" instead!