Oops, an error
Loading. Please wait.

The Structure Fallslive Tab

3,699 views 1 this week
4 commentsread comments
1 2 3 4 5
x 3
add to favorites
launch autoscroll
font size
0
reset
how to read this tab
guitar tuner
Autoscroll
slow
fast
+/-
esc
set tempo
stop
Help us to improve Ultimate-Guitar.com Take our survey!
×
Author
Tuning
C G C F A D
----------------------------------------------------------------------------
                        The Structure Falls(Live)  - Escape The Fate
----------------------------------------------------------------------------

Tabbed By:Eric Hernandez
Email:Bfmv702@yahoo.com

Tuning:Drop C

[Intro]
D|--------------------------------------------------------------|
A|--------------------------------------------------------------|
F|--------------------------------------------------------------|
C|4*------------------------------------------------------------|  x2
G|-----7---8----7---8---8---7---5----7---8----7---8---8---10----|
C|--88---8---88---8---8---8---8---88---8---88---8---8---8-------|

[Verse]
D|------------------------------------------------------------------|
A|------------------------------------------------------------------|
F|--7------3--------------------------------------------------------|
C|--7(x10)-3(x10)-5------7-------8-101010---------------------------|
G|--5------1------5(x10)-7(x5)---8-101010---------------------------|
C|----------------5------7-------8-101010---------------------------|

D|--------------------------------------------------------------|
A|--------------------------------------------------------------|
F|-7------3-----------------------------------------------------|
C|-7(x10)-3(x10)-5------4----4444-------------------------------|
G|-5------1------5(x10)-4----4444-------------------------------|
C|---------------5------4----4444-------------------------------|

[Verse 2]
D|------------------------------------------------------------|
A|------------------------------------------------------------|
F|-5----10---3----10---9-----5----10---3----13---12-----------|
C|-x(x4)x(x4)x(x4)x(x2)x(x2)-x(x4)x(x4)x(x4)x(x2)x(x2)--------|  x2
G|-3----8----1----8----7-----3----8----1----11---10-----------|
C|------------------------------------------------------------|

[Chorus]
D|------------------------------------------------------------------|
A|------------------------------------------------------------------|
F|-7-------3------5-------------------------------------------------|
C|-7(x4)---3(x4)--5(x4)---5--------7------9-------------------------|
G|-5-------1------3-------5(x4)----7(x4)--9(x4)---------------------| x2
C|------------------------5--------7------9-------------------------|

[Repeat Intro]
D|------------------------------------------------------------|
A|------------------------------------------------------------|
F|------------------------------------------------------------|
C|------------------------------------------------------------|  x4
G|-----7---8----7---8---8---7---5----7---8----7---8---8---10--|
C|--88---8---88---8---8---8---8---88---8---88---8---8---8-----|

[Repeat Verse 2]
D|------------------------------------------------------------|
A|------------------------------------------------------------|
F|-5----10---3----10---9-----5----10---3----13---12-----------|
C|-x(x4)x(x4)x(x4)x(x2)x(x2)-x(x4)x(x4)x(x4)x(x2)x(x2)--------|  x2
G|-3----8----1----8----7-----3----8----1----11---10-----------|
C|------------------------------------------------------------|


[Repeat Chorus]
D|------------------------------------------------------------------|
A|------------------------------------------------------------------|
F|-7-------3------5-------------------------------------------------|
C|-7(x4)---3(x4)--5(x4)---5--------7------9-------------------------|
G|-5-------1------3-------5(x4)----7(x4)--9(x4)---------------------| x2
C|------------------------5--------7------9-------------------------|

[Repeat Intro]
D|--------------------------------------------------------------|
A|--------------------------------------------------------------|
F|--------------------------------------------------------------|
C|------------------------------------------------------------0-|  x4
G|-----7---8----7---8---8---7---5----7---8----7---8---8---10--0-|
C|--88---8---88---8---8---8---8---88---8---88---8---8---8-----0-|

[Breakdown][Clean]
D|-----------------------------------------------------------------|
A|-----------------------------------------------------------------|
F|-----------------------------------------------------------------|
C|----3-----3---3-----5-----5---5------7-----7---7-----7---7-------|  x2
G|1-1---1-1---1---3-3---3-3---3----5-5---5-5---5---5-5---5---------|
C|-----------------------------------------------------------------|

D|---------------------------------------------------------|
A|---------------------------------------------------------|
F|---------------------------------------------------------|
C|---------------------------------------------------------|
G|-5----8-7---3-5----8-7----3-5----10-8---5---10-8---------|
C|---------------------------------------------------------|

[Overdrive]
D|----------------------------------------------------------------|
A|----------------------------------------------------------------|
F|-3-------5-----7------3------5----------------------------------|
C|-3(x10)--5(x10)7(x20)-3(x10)-5(x10)--0--------------------------|
G|-1-------3-----5------1------3-------0--------------------------|
C|-------------------------------------0--------------------------|

[Outro]
D|----------------------------------------------------------------|
A|----------------------------------------------------------------|
F|---3------5------7----------------------------------------------|
C|---3(x10)-5(x10)-7(x20)-----------------------------------------|  x3
G|---1------3------5----------------------------------------------|
C|-/--------------------------------------------------------------|
Suggest correction
Give kudos to tab author, rate the tab!
1 2 3 4 5
comments
print report bad tab
4 comments total. Showing first comments.
0 reply
moshing madman 10 Jul 20, 2009 02:11 PM

hey what album is this song of cus they only have 3 albums that i know of

0 reply
RonnieFNRadke 10 Aug 16, 2009 10:38 AM

madman, its a song they only did live and was never released when they recorded it

0 reply
screamo_core 435 Oct 10, 2009 11:04 PM

great tab!!

guest
You may want to rate the tab now too:
select rating
Wanna post a correction for this tab? Suggest correction