Oops, an error
Loading. Please wait.

Theres No Sympathy For The Dead Tab

version 1
version 1

Intro

Solo

Whole song

45,481 views 24 this week
18 commentsread comments
1 2 3 4 5
excellent!
x 14
add to favorites
launch autoscroll
font size
0
reset
how to read this tab
guitar tuner
Tab Pro tools
  • play this tab
  • loop segment
  • change instrument
  • show fretboard
  • metronome
Autoscroll
slow
fast
+/-
esc
set tempo
stop
Contributor
Difficulty
intermediate
-------------------------------------------------------------------------------
            Theres No Sypmapthy For the Dead - Escape The Fate
-------------------------------------------------------------------------------

Tabbed by: Luis L.
Email: profesorhawk@hotmail.com

Tuning: CGCFAD

The tuning is like every string tuned down two frets (one step) and the lowest string 
down an extra two frets.

I'll post the whole song in a little bit, I'm almost done, in the meantime have fun!

Solo

Guitar 1
D|---------------------------------------------------------------------------|
A|-10-------------10---8h10p8------------------------------------------------|
F|-12b14-10-9-----------------10p9-------10-9h10p9---------------------------|
C|------------8-8----8-------------10h12-----------12p10---------------------|
G|---------------------------------------------------------------------------|
C|---------------------------------------------------------------------------|

D|---12h13p12p10----------------------17-15h17p15----------20-17h18p17-------|
A|---------------13p12p10----------10-------------17h18-18-------------20p18-|
F|------------------------12-10-12-------------------------------------------|
C|-10------------------------------------------------------------------------|
G|---------------------------------------------------------------------------|
C|---------------------------------------------------------------------------|

D|----------------------------17h18h20b22p20-17h18p17------------------------|
A|-18-18b19r18-18h20p18-18h20-------------------------20p18p17----------17h18|
F|-------------------------------------------------------------17\15/17------|
C|---------------------------------------------------------------------------|
G|---------------------------------------------------------------------------|
C|---------------------------------------------------------------------------|

D|-------------22p20p18----20p18-------18------------------------------------|
A|-18h20p18p17----------22-------22p20----22p20p18h22p20p18p17---------------|
F|---------------------------------------------------------------------------|
C|---------------------------------------------------------------------------|
G|---------------------------------------------------------------------------|
C|---------------------------------------------------------------------------|

D|-18p17----------------------------------------------------20b22~-----------|
A|-------20p18p17----------------------15~----17~----18~---------------------|
F|----------------19p17-17p15-17b18r17-18b19~-20b21~-21b22~------------------|
C|---------------------------------------------------------------------------|
G|---------------------------------------------------------------------------|
C|---------------------------------------------------------------------------|

D|-------------------------------15----12h13p12----12------------------------|
A|-15-15-17-15-17h18p17p15-13-13----13----------15---------------------------|
D|---------------------------------------------------------------------------|
C|---------------------------------------------------------------------------|
G|---------------------------------------------------------------------------|
C|---------------------------------------------------------------------------|

D|----19----17h19p17----------19----17h19p17---------------------------------|
A|-------------------20p19-------------------19h20---------------------------|
F|-17----17----------------17----17------------------------------------------|
C|---------------------------------------------------------------------------|
G|---------------------------------------------------------------------------|
C|---------------------------------------------------------------------------|

D|-------------------------------15----12h13p12----12------------------------|
A|-15-15-17-15-17h18p17p15-13-13----13----------15---------------------------|
F|---------------------------------------------------------------------------|
C|---------------------------------------------------------------------------|
G|---------------------------------------------------------------------------|
C|---------------------------------------------------------------------------|

D|----19----17h19p17----------19----17h19p17---------------------------------|
A|-------------------20p19-------------------20p19---------------------------|
F|-17----17----------------17----17------------------------------------------|
C|---------------------------------------------------------------------------|
G|---------------------------------------------------------------------------|
C|---------------------------------------------------------------------------|

D|---------------------------------------------------------------------------|
A|-20-(pick 8 times)-22-(pick another 8 times)-------------------------------|
F|---------------------------------------------------------------------------|
C|---------------------------------------------------------------------------|
G|---------------------------------------------------------------------------|
C|---------------------------------------------------------------------------|

D|-17h18p17-------------20-20b22~~~~-----------------------------------------|
A|----------20-18-17---------------------------------------------------------|
F|-------------------19------------------------------------------------------|
C|---------------------------------------------------------------------------|
G|---------------------------------------------------------------------------|
C|---------------------------------------------------------------------------|
comments
print report bad tab
18 comments total. Showing first comments.
0 reply
the_crimison wrote on August 24 2006, 07:54 am

this is great! could you please make a guitar pro tab out of it?

0 reply
todayFOREVER wrote on August 26 2006, 12:24 am

YAY! you should tab some full songs, you're good.

0 reply
Emergency? wrote on October 10 2006, 06:08 pm

PLEASE SUM! TAB THE WHOLE SONG!

I want to post or [tab]
guest
You may want to rate the tab now too:
select rating
Please do not post tabs as comments. Select "correction" instead!