Oops, an error
Loading. Please wait.

Theres No Sympathy For The Dead Bass Tab

version 2
version 2
11,430 views 9 this week
2 commentsread comments
1 2 3 4 5
accurate
x 6
add to favorites
launch autoscroll
font size
0
reset
guitar tuner
Autoscroll
slow
fast
+/-
esc
set tempo
stop
Help us to improve Ultimate-Guitar.com Take our survey!
×
Contributor
Artist  :Escape The Fate
Album   :There's No Sympathy For The Dead (ep)
Track   :There's No Sympathy For the Dead
Tunning :Drop C


Should be about right.

-Intro 1-
F|-------------|-------------|------------------------------------|
C|-------------|-------------|------------------------------------|
G|-------------|-------------|------------------------------------|
C|-000-0-0-0---|-000-0-0-0---|-000-0-0-0~~~000-0-0-0~00000000/12\-|

-Verse 1/A-
F|----------------------------------|
C|----------------------------------|
G|----------------1~1~11113~3~33333-|
C|-0~0~0000~000000------------------|

F|----------------------------------|
C|----------------------------------|
G|----------------1~1~11113~3~33333-|
C|-0~0~0000~000000------------------|

F|----------------------------------|
C|----------------------------------|
G|----------------1~1~11113~3~33333-|
C|-0~0~0000~000000------------------|

F|-------------------------------|
C|--------------------------5--3-|
G|----------------1~1~111133-33--|
C|-0~0~0000~000000---------------|

-Verse 1/B-
F|------------------------------------------------------|
C|------------------------------------------------------|
G|------------------------------------------------------|
C|-0~000000000003~333333333338~8888888885~555557~777777-|

F|-----------------------------------3333----------------|
C|-----------2---------53232-----------------------------|
G|------------53------------531~11111--------------------|
C|-0~00000000---3~33333------------------5~555557~777777-|

-Break 1-
F|------------------------------|--------------------------------|
C|-----------------75-----------|-------------------------1087---|
G|-5p0-8p0-7p0-5p0---87-8p0-7p0-|-5p0-8p0-7p0-5p0-8p0-7p0-----10-|
C|------------------------------|--------------------------------|

F|-------------------------|-------------------------|
C|-------------------------|-------------------------|
G|-------------------------|-------------------------|
C|-000000-0----00-0-000000-|-000000-0----00-0-000000-|

F|------------------------------|----------------------------------|
C|-----------------75-----------|-------------------------8-101010-|
G|-5p0-8p0-7p0-5p0---87-8p0-7p0-|-5p0-8p0-7p0-5p0-8p0-7p0----------|
C|------------------------------|----------------------------------|

F|-------------------------|-------------------------|
C|-------------------------|-------------------------|
G|-------------------------|-------------------------|
C|-000000-0----00-0-000000-|-000000-0----00-0-000000-|

-Pre-Chorus 1-
F|-------------------------------|
C|-------------------------------|
G|-------------------------------|
C|-7~7777777777-8~88888888101010-|

F|---------------------------------------|
C|---------------------------------------|
G|----------------------12-10-8-7-10-8-7-|
C|-7~7777777777-8888888------------------|

-Chorus 1-
F|------------------------------------|
C|------------------------------------|
G|-5~55550-1~1111111---------3~333310-|
C|------------------3~333333----------|
                           ( 1-0 not 10 )
F|------------------------------------|
C|------------------------------------|
G|-5~55550-1~1111111---------3~333310-|
C|------------------3~333333----------|
                           ( 1-0 not 10 )
F|-----------------------------------|
C|-----------------------------------|
G|-5~5~55--1~1111111--------3~333310-|
C|------------------3~333333---------|
                           ( 1-0 not 10 )
F|-----------------------------------|
C|-----------------------------------|
G|-5~5~55--1~1111111--------3~333310-|
C|------------------3~333333---------|
                           ( 1-0 not 10 )

-Pre Solo 1-
F|-------------------------------------------------|
C|-------------10101010-12121212-14141414-15151515-|
G|-1~111111111-------------------------------------|
C|-------------------------------------------------|

-Verse 2/A-
F|----------------------------------|
C|----------------------------------|
G|----------------1~1~11113~3~33333-|
C|-0~0~0000~000000------------------|

F|-------------------------------|
C|--------------------------5--3-|
G|----------------1~1~111133-33--|
C|-0~0~0000~000000---------------|

-Bridge 1 ( bass )-
F|-----------------------------------------33333--------------|
C|-----------020-----------32--2------------------------------|
G|---------13---31-----------53-53--1~11111-------------------|
C|-0~000000--------0~00000----------------------5~5555-7~7777-|

-Bridge 1 ( all )-
F|-----------------------------------------33333--------------|
C|-----------020-----------32--2------------------------------|
G|---------13---31-----------53-53--1~11111-------------------|
C|-0~000000--------0~00000----------------------5~5555-7~7777-|

-Break 2-
F|------------------------------|--------------------------------|
C|-----------------75-----------|-------------------------1087---|
G|-5p0-8p0-7p0-5p0---87-8p0-7p0-|-5p0-8p0-7p0-5p0-8p0-7p0-----10-|
C|------------------------------|--------------------------------|

F|-------------------------|-------------------------|
C|-------------------------|-------------------------|
G|-------------------------|-------------------------|
C|-000000-0----00-0-000000-|-000000-0----00-0-000000-|

F|------------------------------|----------------------------------|
C|-----------------75-----------|-------------------------8-101010-|
G|-5p0-8p0-7p0-5p0---87-8p0-7p0-|-5p0-8p0-7p0-5p0-8p0-7p0----------|
C|------------------------------|----------------------------------|

F|-------------------------|-------------------------|
C|-------------------------|-------------------------|
G|-------------------------|-------------------------|
C|-000000-0----00-0-000000-|-000000-0----00-0-000000-|

-Pre-Chorus 2-
F|-------------------------------|
C|-------------------------------|
G|-------------------------------|
C|-7~7777777777-8~88888888101010-|

F|----------------|
C|----------------|
G|----------------|
C|-7~7777777777-8-|

-Chorus 1-
F|------------------------------------|
C|------------------------------------|
G|-5~55550-1~1111111---------3~333310-|
C|------------------3~333333----------|
                           ( 1-0 not 10 )
F|------------------------------------|
C|------------------------------------|
G|-5~55550-1~1111111---------3~333310-|
C|------------------3~333333----------|
                           ( 1-0 not 10 )
F|-----------------------------------|
C|-----------------------------------|
G|-5~5~55--1~1111111--------3~333310-|
C|------------------3~333333---------|
                           ( 1-0 not 10 )
F|-----------------------------------|
C|-----------------------------------|
G|-5~5~55--1~1111111--------3~333310-|
C|------------------3~333333---------|
                           ( 1-0 not 10 )

-Pre Solo 2-
F|-------------------------------------------------|
C|-------------10101010-12121212-14141414-15151515-|
G|-1~111111111-------------------------------------|
C|-------------------------------------------------|

-Solo 1/A-
F|------------------------------------|
C|------------------------------------|
G|-5~55550-1~1111111---------3~333310-|
C|------------------3~333333----------|
                           ( 1-0 not 10 )
F|------------------------------------|
C|------------------------------------|
G|-5~55550-1~1111111---------3~333310-|
C|------------------3~333333----------|
                           ( 1-0 not 10 )
F|-----------------------------------|
C|-----------------------------------|
G|-5~5~55--1~1111111--------3~333310-|
C|------------------3~333333---------|
                           ( 1-0 not 10 )
F|-----------------------------------|
C|-----------------------------------|
G|-5~5~55--1~1111111--------3~333310-|
C|------------------3~333333---------|
                           ( 1-0 not 10 )
-Solo 1/B-
F|---------------------------------------|
C|---------------------------------------|
G|-5~555555-3~333333-1~1111111-3~3333333-|
C|---------------------------------------|

F|-------------------|-------------------------------|
C|-------------------|-------------------------------|
G|-5~555555-3~333333-|-1~111111111111-33333333333333-|
C|-------------------|-------------------------------|
  

-Break-


-Outro 1/A-
F|----------------------------------------------------|
C|----------------------------------------------------|
G|-55555555555-33333333333-------------11111113333333-|
C|-------------------------33333333333----------------|

F|----------------------------------------------------|
C|----------------------------------------------------|
G|-55555555555-33333333333-------------11111113333333-|
C|-------------------------33333333333----------------|

-Outro 1/B-
F|----------------------------------|
C|----------------------------------|
G|-88~~~~77~~~~------55555557777----|
C|-------------77~~~~-----------000-|

F|----------------------------------|
C|----------------------------------|
G|-88~~~577~~~~------55555557777----|
C|-------------77~~~~-----------000-|

F|--------------------------------------------|
C|--------------------------------------------|
G|-88888888-77777777-----------55555557777----|
C|-------------------777777777------------000-|

F|--------------------------------------------|
C|--------------------------------------------|
G|-88888888-77777777-----------55555557777----|
C|-------------------777777777------------000-|

F|--------------------------------------------|
C|--------------------------------------------|
G|-88888888-77777777-----------5555555--------|
C|-------------------777777777--------0000000-|

-End-
F|--------|
C|--------|
G|--------|
C|-0~~~~~-|
comments
print report bad tab
2 comments total.
0 reply
jammyrat 152 wrote on May 6 2009, 03:39 pm

I've been trying to figure out them fills for ages
:)

0 reply
Second Bass 151 wrote on July 3 2009, 11:51 am

Thanks for tabbing this, good work.

I want to post or [tab]
guest
You may want to rate the tab now too:
select rating
Please do not post tabs as comments. Select "correction" instead!