Oops, an error
Loading. Please wait.
We have Chord Pro version of This War Is Ours.
It's the closest thing you can get to the original song and it has interactive parts. Check out the tab »
×
43,316 views 3 this week
2 commentsread comments
1 2 3 4 5
x 10
add to favorites
launch autoscroll
font size
0
reset
how to read this tab
guitar tuner
backing track
0:00
0:00
Autoscroll
slow
fast
+/-
esc
set tempo
stop
Author
Difficulty
Tuning
novice
C G C F A D
its actually just the outro.
i was working on a full tab but im going to be too busy for awhile.
full tab soon though.

/ = slide
Drop C tuning. 

riff x 2

D|---------------------------------------------------------------------------------------------|
A|---------------------------------------------------------------------------------------------|
F|---------------------------------------------------------------------------------------------|
C|--2---00000000---0-22--00000000---2-4---7--44444444--2-4---7--44444444-----------------------|
G|--2---00000000---0-22--00000000---2-4---7--44444444--2-4---7--44444444-----------------------|
C|--2---00000000---0-22--00000000---2-4---7--44444444--2-4---7--44444444---7-6-4/2-------------|
P.M     .......    .     .......    . .      .......   . .      ....... 

end on

D|------------------|
A|------------------|
F|------------------|
C|-----2--00000000--|
G|-----2--00000000--|
C|-----2--00000000--|
P.M       .......  
Suggest correction
comments
print report bad tab
2 comments total.
0 reply
hayden kid 131 Sep 28, 2009 03:37 AM

no affence but this tab is crap.

0 reply
kgranlund 15 Oct 05, 2009 12:02 PM

this is not the intro... This is the intro

---------9p5----- ---------10p6----- ---------17p12-----
-------7-----7--- -------7------7--- -------15-----15---
-----6---------6- -----7----------7- -----14---------14-
---7-------------X2---7--------------X2---15--------------
-9--------------- -9---------------- -17----------------
----------------- ------------------ -------------------
or something along that lines haha yours seems beginner like if you ask me

guest
You may want to rate the tab now too:
select rating
Wanna post a correction for this tab? Suggest correction