Oops, an error
Loading. Please wait.
We have Chord Pro version of This War Is Ours.
It's the closest thing you can get to the original song and it has interactive parts. Check out the tab »
×
2,608 views 3 this week
3 commentsread comments
1 2 3 4 5
x 3
add to favorites
×
Save as Personal and add changes to this tab that will be seen only by you. Learn more ›
×
You can save this tab as Personal to edit and correct it or add notes. All changes will be seen only by you. Learn more »
launch autoscroll
font size
0
reset
guitar tuner
backing track
0:00
0:00
edit
Autoscroll
slow
fast
+/-
esc
set tempo
stop
This War Is Ours
Escape the Fate
Drop C
Tabbed By; Synysterblack

-Intro-
F|------------------------------------------------------------------------------|
C|------------------------------------------------------------------------------|
G|------------------------------------------------------------------------------|
C|-44444444444444444444444444444444-4--7--22222224--7-2-2-4-4-4-4-4444444444\---|

-Verse-
F|----------------------------------------------|
C|----------------------------------------------|
G|----------------------------------------------|
C|-44-4-4-4---44-4-4-4---00-0-0-0---00-0-0-0----|

F|------------------------------------|
C|------------------------------------|
G|------------------------------------|
C|-44444422444444224444442244444422---|

F|-------------------------------------------|
C|-------------------------------------------|
G|-------------------------------------------|
C|-000000220000002200000000/14141414141412---|

-Pre-chorus-
F|---------------------------|
C|---------------------------|
G|---------------------------|
C|-2~00000--02-2~00000-2-2---|

-Chorus-
F|---------------------------------------------------------------------|
C|---------------------------------------------------------------------|
G|-5~555555554444440---------------------------4444444--9-7-5-4-5-4----|
C|------------------4~44444442222xxx-0~00000000-------04-----------7---|

F|-------------------------------------------------------------------------------|
C|-------------------------------------------------------------------------------|
G|-5~555555554444440---------------------------4444444--9-7-5-4-5-4--------------|
C|------------------4~44444442222xxx-0~00000000-------04-----------74~4-4-4-4\---|

-Verse 2-
F|----------------------------------------------|
C|----------------------------------------------|
G|----------------------------------------------|
C|-44-4-4-4---44-4-4-4---00-0-0-0---00-0-0-0----|

F|------------------------------------|
C|------------------------------------|
G|------------------------------------|
C|-44444422444444224444442244444422---|

F|-------------------------------------------|
C|-------------------------------------------|
G|----------------------------------1214-----|
C|-000000220000002200000000/14141414----14---|

-Pre-chorus 2-
F|---------------------------|
C|---------------------------|
G|---------------------------|
C|-2~00000--02-2~00000-2-2---|

-Chorus 2-
F|---------------------------------------------------------------------|
C|---------------------------------------------------------------------|
G|-5~555555554444440---------------------------4444444--9-7-5-4-5-4----|
C|------------------4~44444442222xxx-0~00000000-------04-----------7---|

F|-----------------------------------------------------------------------|
C|-----------------------------------------------------------------------|
G|-5~555555554444440---------------------------4444444--9-7-5-4-5-4------|
C|------------------4~44444442222xxx-0~00000000-------04-----------74~---|

F|--------------------------------|
C|--------------------------------|
G|-9-7-5-4-5-4--------------------|
C|------------74~4-4-4-4-4-4-0~---|

-Break-
F|-----------------|
C|-----------------|
G|-----------------|
C|-----------------|

-Bridge- Finger pick first part
F|-----------------------|
C|-----------------------|
G|-----5~-7~-----5~-7~---|
C|-4~~-------4~~---------|

F|--------------------------------------------------------------|
C|--------------------------------------------------------------|
G|----------5~5-57-7~777-4~4-44-4~-45-7~-77/19~19191919191919---|
C|-4~4~4-444----------------------------------------------------|

F|-------------------------------------------------------------------------------|
C|-------------------------------------------------------------------------------|
G|-------------------------------------------------------------------------------|
C|-4~444444444444444-00000000-22222222-44444444-66666666-777777777777/14141414---|

-Pre-solo-
F|------------------|
C|------------------|
G|------------------|
C|-0--02--2-4-67\---|

-Solo-
F|-------------------------------------------------|
C|-------------------------------------------------|
G|--------------------------------------232-3235---|
C|-44-4-4-4---44-4-4-4---00-0-0-0---00-0---5-------|

F|------------------------------------|
C|------------------------------------|
G|------------------------------------|
C|-44444422444444224444442244444422---|

F|---------------------------------------|
C|---------------------------------------|
G|---------------------------------------|
C|-00000022000000220022446677/14141414---|

-Pre-chorus 3-
F|-------------------------------------------|
C|-------------------------------------------|
G|--------------------------5\------4-5-4----|
C|-2~00000--02-2~00000-2-2---------------7---|

-Chorus 3-
F|---------------------------------------------------------------------|
C|---------------------------------------------------------------------|
G|-5~555555554444440---------------------------4444444--9-7-5-4-5-4----|
C|------------------4~44444442222xxx-0~00000000-------04-----------7---|

F|------------------------------------------------------------------------------|
C|------------------------------------------------------------------------------|
G|-5~55555557777777-9~999999912121212121212-5~555555554444440--9-7-5-4-5-4------|
C|-----------------------------------------------------------4------------74~---|

F|-------------------------------------------------|
C|-------------------------------------------------|
G|-9-7-5-4-5-4----9-7-5-4-5-4----9-7-5-4-5-4-------|
C|------------74~------------74~------------74~~---|

-End-
F|------------------------------------------------------------|
C|------------------------------------------------------------|
G|------------------------------------------------------------|
C|-2~00000--0-2-2~00000—4~-7-7-44444\--4~-7-7-44444\-7-6-42---|

F|------------------------------------------------------------|
C|------------------------------------------------------------|
G|------------------------------------------------------------|
C|-2~00000--0-2-2~00000—4~-7-7-44444\--4~-7-7-44444\-7-6-42---|

F|-----------|
C|-----------|
G|-----------|
C|-2~00000---|

Suggest correction
Creating personal tab
Creating personal tab
You can edit any tab online and save it as your Personal.

You can edit, replace or remove any tab part or add personal notes – all changes will be seen only by you.

Personal tabs can be accessed anytime from any device, even offline.
Learn more »
Give kudos to tab author, rate the tab!
1 2 3 4 5
comments
print report bad tab
3 comments total.
0 reply
royturner23 1,507 Jul 08, 2009 06:30 AM

niice dude

0 reply
synysterblack 528 Jul 08, 2009 06:42 AM

thanks

-1 reply
CommentMasta 333 Apr 13, 2010 03:05 PM

you sucks at tabbing ...for real

guest
You may want to rate the tab now too:
select rating
Wanna post a correction for this tab? Suggest correction