Oops, an error
Loading. Please wait.
We have an official Ungrateful tab made by UG professional guitarists. Check out the tab »
×
2,007 views 1 this week
9 commentsread comments
1 2 3 4 5
x 6
add to favorites
×
Save as Personal and add changes to this tab that will be seen only by you. Learn more ›
×
You can save this tab as Personal to edit and correct it or add notes. All changes will be seen only by you. Learn more »
launch autoscroll
font size
0
reset
guitar tuner
edit
Autoscroll
slow
fast
+/-
esc
set tempo
stop
The Whole Album Is In Drop C ^^

Originally Tabbed by Jack Mills
Tabs edited & Reworked by Teh D Bot (http://profile.ultimate-guitar.com/Teh+D+Bot/)

Have Fun <3

1. Ungrateful
2. Until We Die
3. Live Fast, Die Beautiful
4. Forget About Me
5. You're Insane
6. Chemical Love
7. Picture Perfect
8. Risk It All
9. Desire
10. One For The Money
11. Fire It Up
12. I Alone
13. Father, Brother

===============================================================================================
1. Ungrateful
===============================================================================================

0:00 Verse
F|-------------------------------------------------------------------|
C|o-----------------------------------------------------------------o|
G|o-----------------------------------------------------------------o|
C|--3-0-0-0---0-0---5---0-0---0-0---6-0-0-0---0-0---0-0-0-0-0-0-0-0--|x4
    1 e + a 2 e + a 3 e + a 4 e + a 1 e + a 2 e + a 3 e + a 4 e + a

0:15 Pre-Chorus
F|-----------------------------------------------------------------|
C|-3-0---0---0---------------------3-0---0---0-----2-3-2-0---0-2-3-|
G|---------------------------------------------------------3-------|
C|---------------0-3-\---------------------------------------------|
   1 e + a 2 e + a 3 e + a 4 e + a 1 e + a 2 e + a 3 e + a 4 e + a

F|-----------------------------------------------------------------|
C|-3-0---0---0---------------------3-0---0---0-----3-5-3-2-0-2-3-5-|
G|-----------------------------------------------------------------|
C|---------------0-3-\---------------------------------------------|
   1 e + a 2 e + a 3 e + a 4 e + a 1 e + a 2 e + a 3 e + a 4 e + a

F|-----------------------------------------------------------------|
C|-3-0---0---0---------------------3-0---0---0-----2-3-2-0---0-2-3-|
G|---------------------------------------------------------3-------|
C|---------------0-3-\---------------------------------------------|
   1 e + a 2 e + a 3 e + a 4 e + a 1 e + a 2 e + a 3 e + a 4 e + a

F|-----------------------------------------------------------------|
C|-3-0---0---0---------------------3-0---0---0-----3---3---2---2---|
G|-----------------------------------------------------------------|
C|---------------0-3-\---------------------------------------------|
   1 e + a 2 e + a 3 e + a 4 e + a 1 e + a 2 e + a 3 e + a 4 e + a

0:30 Chorus
F|-----------------------------------------------------------------|
C|-----------------------------------------------------------------|
G|-1-1-1-1-1-1-1-1-3-3-3-3-3-3-3-3-5-5-5-5-5-5-5-5-3-3-3-3-3-3-3-3-|
C|-----------------------------------------------------------------|
   1 + 2 + 3 + 4 + 1 + 2 + 3 + 4 + 1 + 2 + 3 + 4 + 1 + 2 + 3 + 4 +

F|-----------------------------------------------------------------|
C|-----------------------------------------------------------------|
G|-1-1-1-1-1-1-1-1-3-3-3-3-3-3-3-3-5-5-5-5-5-5-5-5-0-0-0-0-8-8-7-7-|
C|-----------------------------------------------------------------|
   1 + 2 + 3 + 4 + 1 + 2 + 3 + 4 + 1 + 2 + 3 + 4 + 1 + 2 + 3 + 4 +

0:44 Verse
F|------------------------------------------------------------------|
C|o-----------------------------------------------------------------|
G|o-----------------------------------------------------------------|
C|--3---0-0---0-0---5---0-0---0-0---6-0-0-0---0-0---0-0-0-0-0-0-0-0-|
    1 e + a 2 e + a 3 e + a 4 e + a 1 e + a 2 e + a 3 e + a 4 e + a

F|------------------------------------------------------------------|
C|-----------------------------------------------------------------o|
G|-----------------------------------------------------------------o|
C|-3-0-0-0---0-0---5---0-0---0-0---6-0-0-0---0-0---0-0-0-0-0-0-0-0--|
   1 e + a 2 e + a 3 e + a 4 e + a 1 e + a 2 e + a 3 e + a 4 e + a

0:59 Pre-Chorus
F|-----------------------------------------------------------------|
C|-3-0---0---0---------------------3-0---0---0-----2-3-2-0---0-2-3-|
G|---------------------------------------------------------3-------|
C|---------------0-3-\---------------------------------------------|
   1 e + a 2 e + a 3 e + a 4 e + a 1 e + a 2 e + a 3 e + a 4 e + a

F|-----------------------------------------------------------------|
C|-3-0---0---0---------------------3-0---0---0-----3-5-3-2-0-2-3-5-|
G|-----------------------------------------------------------------|
C|---------------0-3-\---------------------------------------------|
   1 e + a 2 e + a 3 e + a 4 e + a 1 e + a 2 e + a 3 e + a 4 e + a

F|-----------------------------------------------------------------|
C|-3-0---0---0---------------------3-0---0---0-----2-3-2-0---0-2-3-|
G|---------------------------------------------------------3-------|
C|---------------0-3-\---------------------------------------------|
   1 e + a 2 e + a 3 e + a 4 e + a 1 e + a 2 e + a 3 e + a 4 e + a

F|-----------------------------------------------------------------|
C|-3-0---0---0---------------------3-0---0---0-----3---3---2---2---|
G|-----------------------------------------------------------------|
C|---------------0-3-\---------------------------------------------|
   1 e + a 2 e + a 3 e + a 4 e + a 1 e + a 2 e + a 3 e + a 4 e + a

1:14 Chorus
F|------------------------------------------------------------------|
C|o-----------------------------------------------------------------|
G|o-1-1-1-1-1-1-1-1-3-3-3-3-3-3-3-3-5-5-5-5-5-5-5-5-3-3-3-3-3-3-3-3-|
C|------------------------------------------------------------------|
    1 + 2 + 3 + 4 + 1 + 2 + 3 + 4 + 1 + 2 + 3 + 4 + 1 + 2 + 3 + 4 +

F|------------------------------------------------------------------|
C|-----------------------------------------------------------------o|
G|-1-1-1-1-1-1-1-1-3-3-3-3-3-3-3-3-5-5-5-5-5-5-5-5-0-0-0-0-8-8-7-7-o|
C|------------------------------------------------------------------|
   1 + 2 + 3 + 4 + 1 + 2 + 3 + 4 + 1 + 2 + 3 + 4 + 1 + 2 + 3 + 4 +

1:43 Bridge
F|-----------------------------------------------------------------|
C|-----------------------------------------------------------------|
G|-----------------------------------------------------------------|
C|-0-------0-------0---------------0-------0-------0---------------|
   1 + 2 + 3 + 4 + 1 + 2 + 3 + 4 + 1 + 2 + 3 + 4 + 1 + 2 + 3 + 4 +


F|-----------------------------------------------------------------|
C|-----------------------------------------------------------------|
G|-----------------------------------------------------------------|
C|-0-------0-------0---------------0-------2-------3-------5-------|
   1 + 2 + 3 + 4 + 1 + 2 + 3 + 4 + 1 + 2 + 3 + 4 + 1 + 2 + 3 + 4 +

1:58 Solo
F|-----------------------------------------------------------------|
C|-----------------------------------------------------------------|
G|-----------------------------------------------------------------|
C|-00------0000--0-22------2222222233------3333-33-22------22222222|
   1 + 2 + 3 + 4 + 1 + 2 + 3 + 4 + 1 + 2 + 3 + 4 + 1 + 2 + 3 + 4 +

F|-----------------------------------------------------------------|
C|-----------------------------------------------------------------|
G|-----------------------------------------------------------------|
C|-00------0000--0-22------2222222233------3333-33-55------55555555|
   1 + 2 + 3 + 4 + 1 + 2 + 3 + 4 + 1 + 2 + 3 + 4 + 1 + 2 + 3 + 4 +

F|---------------------------------|
C|---------------------------------|
G|-------------------------8-8-7-7-|
C|-5-------5-------5---------------|
   1 + 2 + 3 + 4 + 1 + 2 + 3 + 4 +

2:17 Chorus
F|-----------------------------------------------------------------|
C|-----------------------------------------------------------------|
G|-1-1-1-1-1-1-1-1-3-3-3-3-3-3-3-3-5-5-5-5-5-5-5-5-3-3-3-3-3-3-3-3-|
C|-----------------------------------------------------------------|
   1 + 2 + 3 + 4 + 1 + 2 + 3 + 4 + 1 + 2 + 3 + 4 + 1 + 2 + 3 + 4 +

F|-----------------------------------------------------------------|
C|-----------------------------------------------------------------|
G|-1-1-1-1-1-1-1-1-3-3-3-3-3-3-3-3-5-5-5-5-5-5-5-5-0-0-0-0-8-8-7-7-|
C|-----------------------------------------------------------------|
   1 + 2 + 3 + 4 + 1 + 2 + 3 + 4 + 1 + 2 + 3 + 4 + 1 + 2 + 3 + 4 +

2:31
F|------------------------------------------------------------------|
C|o-----------------------------------------------------------------|
G|o-11------1111--1-33------3333333355------5555--5-33------33333333|
C|------------------------------------------------------------------|
    1 + 2 + 3 + 4 + 1 + 2 + 3 + 4 + 1 + 2 + 3 + 4 + 1 + 2 + 3 + 4 +

F|------------------------------------------------------------------|
C|-----------------------------------------------------------------o|
G|-11------1111--1-33------3333333355------5555--5-00------8-8-7-7-o|
C|------------------------------------------------------------------|
   1 + 2 + 3 + 4 + 1 + 2 + 3 + 4 + 1 + 2 + 3 + 4 + 1 + 2 + 3 + 4 +


3:01 Outro (Slowed Down)
F|-----------------------------------------------------------------|
C|-----------------------------------------------------------------|
G|-----------------------------------------------------------------|
C|-0---0---0-------0---0---0-------0---0---0-------0---0---0-------|
   1 + 2 + 3 + 4 + 1 + 2 + 3 + 4 + 1 + 2 + 3 + 4 + 1 + 2 + 3 + 4 +

F|-----------------------------------------------------------------|
C|-----------------------------------------------------------------|
G|-----------------------------------------------------------------|
C|-0---------------------------------------------------------------|
   1 + 2 + 3 + 4 + 1 + 2 + 3 + 4 + 1 + 2 + 3 + 4 + 1 + 2 + 3 + 4 +

Tabbed By Jack Mills & Dave Vucko

===============================================================================================
2. Until We Die
===============================================================================================

Intro
F|-----------------------------------------------------------------|
C|-----------------------------------------------------------------|
G|-----------------------------------------------------------------|
C|-0---------------------------------------------------------------|
   1 + 2 + 3 + 4 + 1 + 2 + 3 + 4 + 1 + 2 + 3 + 4 + 1 + 2 + 3 + 4 +

F|-----------------------------------------------------------------|
C|-----------------------------------------------------------------|
G|-----------------------------------------------------------------|
C|-------------------------------------------------------------/---|
   1 + 2 + 3 + 4 + 1 + 2 + 3 + 4 + 1 + 2 + 3 + 4 + 1 + 2 + 3 + 4 +

F|-----------------------------------------------------------------|
C|-----------------------------------------------------------------|
G|-----------------------------------------------------------------|
C|-000-000-000-----000-000-000-----000-000-000-----000-000-000-----|
   1 + 2 + 3 + 4 + 1 + 2 + 3 + 4 + 1 + 2 + 3 + 4 + 1 + 2 + 3 + 4 +

F|-----------------------------------------------------------------|
C|-----------------------------------------------------------------|
G|-----------------------------------------------------------------|
C|-000-000-000-----000-000-000-----000-000-000-----0000000000000000|
   1 + 2 + 3 + 4 + 1 + 2 + 3 + 4 + 1 + 2 + 3 + 4 + 1 + 2 + 3 + 4 +

0:23
F|-----------------------------------------------------------------|
C|-----------------------------------------------------------------|
G|---------------------------------3-3-3-3-3-3-3-1-1-1-1-1-1-1-1-1-|
C|-0-0-0-0---000-0-0-0-0-0-0-0-0-----------------------------------|
   1 + 2 + 3 + 4 + 1 + 2 + 3 + 4 + 1 + 2 + 3 + 4 + 1 + 2 + 3 + 4 +

F|-----------------------------------------------------------------|
C|-----------------------------------------------------------------|
G|---------------------------------3-3-3-3-3-3-3-3-1-1-1-1-1-1-1-1-|
C|-0-0-0-0---000-0-0-0-0---0-0-0-0---------------------------------|
   1 + 2 + 3 + 4 + 1 + 2 + 3 + 4 + 1 + 2 + 3 + 4 + 1 + 2 + 3 + 4 +

F|---------------------------------|
C|---------------------------------|
G|---------------------------------|
C|-0-------------------------------|
   1 + 2 + 3 + 4 + 1 + 2 + 3 + 4 + 

Verse 0:38
F|-----------------------------------------------------------------|
C|-----------3---2---------------------------3---2-----------------|
G|-5---3h5-------------------------5---3h5-------------------------|
C|-----------------0-000-0-0-000-0-----------------0-000-0-0-000-0-|
   1 + 2 + 3 + 4 + 1 + 2 + 3 + 4 + 1 + 2 + 3 + 4 + 1 + 2 + 3 + 4 +

F|-----------------------------------------------------------------|
C|-----------3---2-----------------5---3p2---3---2-----------5-3-2-|
G|-5---3h5---------1-111-1-1-111-1-----------------0-000-0-0-------|
C|-----------------------------------------------------------------|
   1 + 2 + 3 + 4 + 1 + 2 + 3 + 4 + 1 + 2 + 3 + 4 + 1 + 2 + 3 + 4 +

Pre Chorus 0:49
F|-----------------------------------------------------------------|
C|-----------------------------------------------------------------|
G|-------------3-5-----------------------------3-5-----------------|
C|-0---------------0---------------0---------------0---------------|
   1 + 2 + 3 + 4 + 1 + 2 + 3 + 4 + 1 + 2 + 3 + 4 + 1 + 2 + 3 + 4 +

F|-----------------------------------------------------------------|
C|-------------2-3-----------------------------2-3-----------5-3-2-|
G|-1---------------1---------------0---------------0---------------|
C|-----------------------------------------------------------------|
   1 + 2 + 3 + 4 + 1 + 2 + 3 + 4 + 1 + 2 + 3 + 4 + 1 + 2 + 3 + 4 +

Chorus 1:01
F|-----------------------------------------------------------------|
C|-----------------------------------------------------------------|
G|---------------------------------------------------------------1-|
C|-0-0-0---0-0-0-0---0-0-0---0-0-0-3-3-3---3-3-3-3---3-3-3---3-3---|
   1 + 2 + 3 + 4 + 1 + 2 + 3 + 4 + 1 + 2 + 3 + 4 + 1 + 2 + 3 + 4 +

F|-----------------------------------------------------------------|
C|-----------------------------------------------------------------|
G|-3-3-3-3-3-3-3-3---3-3-3---3-3-3-1-1-1-1-1-1-1-1-1-1-1-1-1-1-1-1-|
C|-----------------------------------------------------------------|
   1 + 2 + 3 + 4 + 1 + 2 + 3 + 4 + 1 + 2 + 3 + 4 + 1 + 2 + 3 + 4 +

F|-----------------------------------------------------------------|
C|-----------------------------------------------------------------|
G|---------------------------------------------------------------1-|
C|-0-0-0---0-0-0-0---0-0-0---0-0---3-3-3---3-3-3-3---3-3-3---3-3---|
   1 + 2 + 3 + 4 + 1 + 2 + 3 + 4 + 1 + 2 + 3 + 4 + 1 + 2 + 3 + 4 +

F|-----------------------------------------------------------------|
C|-----------------------------------------------------------------|
G|-3-3-3---3-3-3-3---3-3-3---3-3-3-1-1-1-1-1-1-1-1-1-1-1-1-1-1-1-1-|
C|-----------------------------------------------------------------|
   1 + 2 + 3 + 4 + 1 + 2 + 3 + 4 + 1 + 2 + 3 + 4 + 1 + 2 + 3 + 4 +

Verse 1:23
F|-----------------------------------------------------------------|
C|-----------3---2---------------------------3---2-----------------|
G|-5---3h5-------------------------5---3h5-------------------------|
C|-----------------0-000-0-0-000-0-----------------0-000-0-0-000-0-|
   1 + 2 + 3 + 4 + 1 + 2 + 3 + 4 + 1 + 2 + 3 + 4 + 1 + 2 + 3 + 4 +

F|-----------------------------------------------------------------|
C|-----------3---2-----------------5---3p2---3---2-----------5-3-2-|
G|-5---3h5---------1-111-1-1-111-1-----------------0-000-0-0-------|
C|-----------------------------------------------------------------|
   1 + 2 + 3 + 4 + 1 + 2 + 3 + 4 + 1 + 2 + 3 + 4 + 1 + 2 + 3 + 4 +

Pre Chorus 1:34
F|-----------------------------------------------------------------|
C|-----------------------------------------------------------------|
G|-------------3-5-----------------------------3-5-----------------|
C|-0---------------0---------------0---------------0---------------|
   1 + 2 + 3 + 4 + 1 + 2 + 3 + 4 + 1 + 2 + 3 + 4 + 1 + 2 + 3 + 4 +

F|-----------------------------------------------------------------|
C|-------------2-3-----------------------------2-3-----------5-3-2-|
G|-1---------------1---------------0---------------0---------------|
C|-----------------------------------------------------------------|
   1 + 2 + 3 + 4 + 1 + 2 + 3 + 4 + 1 + 2 + 3 + 4 + 1 + 2 + 3 + 4 +

Chorus 1:46
F|-----------------------------------------------------------------|
C|-----------------------------------------------------------------|
G|---------------------------------------------------------------1-|
C|-0-0-0---0-0-0-0---0-0-0---0-0-0-3-3-3---3-3-3-3---3-3-3---3-3---|
   1 + 2 + 3 + 4 + 1 + 2 + 3 + 4 + 1 + 2 + 3 + 4 + 1 + 2 + 3 + 4 +

F|-----------------------------------------------------------------|
C|-----------------------------------------------------------------|
G|-3-3-3-3-3-3-3-3---3-3-3---3-3-3-1-1-1-1-1-1-1-1-1-1-1-1-1-1-1-1-|
C|-----------------------------------------------------------------|
   1 + 2 + 3 + 4 + 1 + 2 + 3 + 4 + 1 + 2 + 3 + 4 + 1 + 2 + 3 + 4 +

F|-----------------------------------------------------------------|
C|-----------------------------------------------------------------|
G|---------------------------------------------------------------1-|
C|-0-0-0---0-0-0-0---0-0-0---0-0---3-3-3---3-3-3-3---3-3-3---3-3---|
   1 + 2 + 3 + 4 + 1 + 2 + 3 + 4 + 1 + 2 + 3 + 4 + 1 + 2 + 3 + 4 +

F|-----------------------------------------------------------------|
C|-----------------------------------------------------------------|
G|-3-3-3---3-3-3-3---3-3-3---3-3-3-1-1-1-1-1-1-1-1-1-1-1-1-1-1-1-1-|
C|-----------------------------------------------------------------|
   1 + 2 + 3 + 4 + 1 + 2 + 3 + 4 + 1 + 2 + 3 + 4 + 1 + 2 + 3 + 4 +

F|-----------------------------------------------------------------|
C|-----------------------------------------------------------------|
G|-1-1---1-1---1-1---1-1-1-1-1-1-1---------------------------------|
C|---------------------------------0-------------------------------|
   1 + 2 + 3 + 4 + 1 + 2 + 3 + 4 + 1 + 2 + 3 + 4 + 1 + 2 + 3 + 4 +

Rest

Bridge 2:23
F|-----------------------------------------------------------------|
C|---------------------------------------------3-3-2h3-----3---2---|
G|-----------------5---------------3-------------------------------|
C|-0-----------0-0-------------------------------------------------|
   1 + 2 + 3 + 4 + 1 + 2 + 3 + 4 + 1 + 2 + 3 + 4 + 1 + 2 + 3 + 4 +

F|-----------------------------------------------------------------|
C|-------------------------------------------------3-3-----3---2---|
G|-----------------5---------------3-------------------------------|
C|-0-----------0-0-------------------------------------------------|
   1 + 2 + 3 + 4 + 1 + 2 + 3 + 4 + 1 + 2 + 3 + 4 + 1 + 2 + 3 + 4 +

F|-------------------------------------------------5---------------|
C|---------------------------------------------------------2---3---|
G|-----------------5---------------3-------------------------------|
C|-0---------------------------------------------------------------|
   1 + 2 + 3 + 4 + 1 + 2 + 3 + 4 + 1 + 2 + 3 + 4 + 1 + 2 + 3 + 4 +

F|-----------------------------------------------------------------|
C|-----------------------------------------------------------------|
G|-----------------5---------------3-3-3-3-3-3-3-3-1-1-1-1-1-1-1-1-|
C|-0---------------------------------------------------------------|
   1 + 2 + 3 + 4 + 1 + 2 + 3 + 4 + 1 + 2 + 3 + 4 + 1 + 2 + 3 + 4 +

Solo 2:46
F|-----------------------------------------------------------------|
C|-----------------------------------------------------------------|
G|---------------------------------3-3---3---333-3-1-1---1---1-1-1-|
C|-0-0---0---000-0-0-0---0-----------------------------------------|
   1 + 2 + 3 + 4 + 1 + 2 + 3 + 4 + 1 + 2 + 3 + 4 + 1 + 2 + 3 + 4 +

F|-----------------------------------------------------------------|
C|-----------------------------------------------------------------|
G|---------------------------------3-3---3---333-3-1-1-1-1-1-1-1-1-|
C|-0-0---0---000-0-0-0---0-----0-----------------------------------|
   1 + 2 + 3 + 4 + 1 + 2 + 3 + 4 + 1 + 2 + 3 + 4 + 1 + 2 + 3 + 4 +

F|-----------------------------------------------------------------|
C|-----------------------------------------------------------------|
G|---------------------------------3-3---3---333-3-1-1---1---1-1-1-|
C|-0-0---0---000-0-0-0---0-----------------------------------------|
   1 + 2 + 3 + 4 + 1 + 2 + 3 + 4 + 1 + 2 + 3 + 4 + 1 + 2 + 3 + 4 +

F|-----------------------------------------------------------------|
C|-------------------------------------------------2-2-2-3-3-2-2-2-|
G|---------------------------------3-3---3---333-3-----------------|
C|-0-0---0---000-0-0-0---0-----0-----------------------------------|
   1 + 2 + 3 + 4 + 1 + 2 + 3 + 4 + 1 + 2 + 3 + 4 + 1 + 2 + 3 + 4 +

Interlude 3:08
F|-----------------------------------------------------------------|
C|-5-5-5-3-3-3-2-2-------------------------------------------------|
G|-----------------0-0-0-0-0-0-0-0---------------------------------|
C|---------------------------------0-------------------------------|
   1 + 2 + 3 + 4 + 1 + 2 + 3 + 4 + 1 + 2 + 3 + 4 + 1 + 2 + 3 + 4 +

Chorus 3:13
F|---------------------------------|
C|---------------------------------|
G|-------------------------------1-|
C|-3-3-3-3-3-3-3-3---3-3-3---3-3---|
   1 + 2 + 3 + 4 + 1 + 2 + 3 + 4 + 

F|-----------------------------------------------------------------|
C|-----------------------------------------------------------------|
G|-3-3-3-3-3-3-3-3---3-3-3---3-3-3-1-1-1-1-1-1-1-1-1-1-1-1-1-1-1-1-|
C|-----------------------------------------------------------------|
   1 + 2 + 3 + 4 + 1 + 2 + 3 + 4 + 1 + 2 + 3 + 4 + 1 + 2 + 3 + 4 +

F|-----------------------------------------------------------------|
C|-----------------------------------------------------------------|
G|---------------------------------------------------------------1-|
C|-0-0-0---0-0-0-0---0-0-0---0-0---3-3-3-3-3-3-3-3---3-3-3---3-3---|
   1 + 2 + 3 + 4 + 1 + 2 + 3 + 4 + 1 + 2 + 3 + 4 + 1 + 2 + 3 + 4 +

F|-----------------------------------------------------------------|
C|-----------------------------------------------------------------|
G|-3-3-3---3-3-3-3---3-3-3---3-3-3-1-1-1-1-1-1-1-1-1-1-1-1-1-1-1-1-|
C|-----------------------------------------------------------------|
   1 + 2 + 3 + 4 + 1 + 2 + 3 + 4 + 1 + 2 + 3 + 4 + 1 + 2 + 3 + 4 +


F|-----------------------------------------------------------------|
C|-----------------------------------------------------------------|
G|-1-1---1-1---1-1---1-1-1-1-1-1-1---------------------------------|
C|---------------------------------r-------------------------------|
   1 + 2 + 3 + 4 + 1 + 2 + 3 + 4 + 1 + 2 + 3 + 4 + 1 + 2 + 3 + 4 +

Rest

Outro 3:42
F|-----------------------------------------------------------------|
C|-----------------------------------------------------------------|
G|-----------------------------------------------------------------|
C|-000-0-0-0-000-0-000-0-0-000-0-0-000-0-0-0-000-0-000-0-0-000-0-0-|
   1 + 2 + 3 + 4 + 1 + 2 + 3 + 4 + 1 + 2 + 3 + 4 + 1 + 2 + 3 + 4 +

3:47
F|-----------------------------------------------------------------|
C|-----------------------------------------------------------------|
G|-----------------------------------------------------------------|
C|-0---------0-0-0-0---------------0-0-------0-0-0-----------------|
   1 + 2 + 3 + 4 + 1 + 2 + 3 + 4 + 1 + 2 + 3 + 4 + 1 + 2 + 3 + 4 +

F|-----------------------------------------------------------------|
C|-----------------------------------------------------------------|
G|-----------------------------------------------------------------|
C|-0-0-------0-0-0-----------------0-0-------0-0-0-----------------|
   1 + 2 + 3 + 4 + 1 + 2 + 3 + 4 + 1 + 2 + 3 + 4 + 1 + 2 + 3 + 4 +

F|-----------------------------------------------------------------|
C|-----------------------------------------------------------------|
G|-----------------------------------------------------------------|
C|-0---------------------------------------------------------------|
   1 + 2 + 3 + 4 + 1 + 2 + 3 + 4 + 1 + 2 + 3 + 4 + 1 + 2 + 3 + 4 +
Tabbed By Dave Vucko

===============================================================================================
3. Live Fast, Die Beautiful
===============================================================================================

Intro 0:07
F|--------------------------------------------------------------------|
C|o------------------------------------------------------------------o|
G|o-00000000000000000000000000000000---------------------------------o|
C|----------------------------------000-0-0-0-0-0000222-2-2-2-2-2222--|
    1 + 2 + 3 + 4 + 1 + 2 + 3 + 4 + 1 + 2 + 3 + 4 + 1 + 2 + 3 + 4 +

Verse 0:22
F|-------------------------------------------------------------------|
C|o-----------------------------------------------------------------o|
G|o-0-0-0-0-0-0-0-0-0-0-0-0-0-0-0-0---------------------------------o|
C|----------------------------------0-0-0-0-0-0-0-0-2-2-2-2-2-2-2-2--|
    1 + 2 + 3 + 4 + 1 + 2 + 3 + 4 + 1 + 2 + 3 + 4 + 1 + 2 + 3 + 4 +

0:36
F|-----------------------------------------------------------------|
C|-----------------------------------------------------------------|
G|-0-0-0-0-0-2-3-0-0-0-0-0-0-0-2-3-5-5-5-5-5-5---------------------|
C|---------------------------------------------3-0-2-2-2-2-2-2-2-2-|
   1 + 2 + 3 + 4 + 1 + 2 + 3 + 4 + 1 + 2 + 3 + 4 + 1 + 2 + 3 + 4 +

F|-----------------------------------------------------------------|
C|-----------------------------------------------------------------|
G|-0-0-0-0-0-2-3-0-0-0-0-0-0-0-2-3---------------------------------|
C|---------------------------------0-0-0-0-0-0-3-0-2-2-2-2-2-2-2-2-|
   1 + 2 + 3 + 4 + 1 + 2 + 3 + 4 + 1 + 2 + 3 + 4 + 1 + 2 + 3 + 4 +

Pre Chorus 0:51
F|---------------------------------|
C|---------------------------------|
G|---------------------------------|
C|-3---3---3-3---5---5-5-\---------|
   1 + 2 + 3 + 4 + 1 + 2 + 3 + 4 + 

Chorus 0:55
F|-----------------------------------------------------------------|
C|-----------------------------------------------------------------|
G|-0---0---0---0---0---0---0---0-023-3-3-3-3-3-5-------------------|
C|-------------------------------------------------5---5-5-5-5-5---|
   1 + 2 + 3 + 4 + 1 + 2 + 3 + 4 + 1 + 2 + 3 + 4 + 1 + 2 + 3 + 4 +

F|-----------------------------------------------------------------|
C|-----------------------------5-20--------------------------------|
G|-0---0---0---0---0---0---0-------3---3-3-3-5-5-3-10\-------------|
C|-------------------------------------------------------------5---|
   1 + 2 + 3 + 4 + 1 + 2 + 3 + 4 + 1 + 2 + 3 + 4 + 1 + 2 + 3 + 4 +

Interlude 1:10
F|------------------------------------------------------------------|
C|------------------------------------------------------------------|
G|-00000000000000000000000000000000---------------------------------|
C|---------------------------------000-0-0-0-0-0000222-2-2-2-2-2222-|
   1 + 2 + 3 + 4 + 1 + 2 + 3 + 4 + 1 + 2 + 3 + 4 + 1 + 2 + 3 + 4 +

Verse 1:16
F|-------------------------------------------------------------------|
C|o-----------------------------------------------------------------o|
G|o-0-0-0-0-0-0-0-0-0-0-0-0-0-0-0-0---------------------------------o|
C|----------------------------------0-0-0-0-0-0-0-0-2-2-2-2-2-2-2-2--|
    1 + 2 + 3 + 4 + 1 + 2 + 3 + 4 + 1 + 2 + 3 + 4 + 1 + 2 + 3 + 4 +

F|-----------------------------------------------------------------|
C|-----------------------------------------------------------------|
G|-0-0-0-0-0-2-3-0-0-0-0-0-0-0-2-3---------------------------------|
C|---------------------------------0-0-0-0-0-0-3---2-2-2-2-2-2-2-2-|
   1 + 2 + 3 + 4 + 1 + 2 + 3 + 4 + 1 + 2 + 3 + 4 + 1 + 2 + 3 + 4 +

F|-----------------------------------------------------------------|
C|-----------------------------------------------------------------|
G|-0-0-0-0-0-2-3-0-0-0-0-0-0-0-2-3-5-5-5-5-5-5-8---7-7-7-7-7-7-7-7-|
C|-----------------------------------------------------------------|
   1 + 2 + 3 + 4 + 1 + 2 + 3 + 4 + 1 + 2 + 3 + 4 + 1 + 2 + 3 + 4 +

Pre Chorus 
F|---------------------------------|
C|---------------------------------|
G|---------------------------------|
C|-3---3---3-3---5---5-5-\---------|
   1 + 2 + 3 + 4 + 1 + 2 + 3 + 4 + 

Chorus 1:50
F|-----------------------------------------------------------------|
C|-----------------------------------------------------------------|
G|-0-0-0-0-0-0-0-0-0-0-0-0-0-0-0-023-3-3-3-3-3-5-\-----------------|
C|-------------------------------------------------5---5-5-5-5-5---|
   1 + 2 + 3 + 4 + 1 + 2 + 3 + 4 + 1 + 2 + 3 + 4 + 1 + 2 + 3 + 4 +

F|-----------------------------------------------------------------|
C|-----------------------------5-20--------------------------------|
G|-0-0-0-0-0-0-0-0-0-0-0-0-0-0-----3-3-3-3-3-5-5-3-10\-------------|
C|-------------------------------------------------------------5---|
   1 + 2 + 3 + 4 + 1 + 2 + 3 + 4 + 1 + 2 + 3 + 4 + 1 + 2 + 3 + 4 +

Solo 2:05
F|-----------------------------------------------------------------|
C|-----------------------------------------------------------------|
G|-0---0---0---0---0---0---0---0-00--------------------------------|
C|---------------------------------0---0---0---0---2---2---2-5-2-5-|
   1 + 2 + 3 + 4 + 1 + 2 + 3 + 4 + 1 + 2 + 3 + 4 + 1 + 2 + 3 + 4 +

F|-----------------------------------------------------------------|
C|-----------------------------------------------------------------|
G|-0---0---0---0---0---0---0---0-005-5-5-5-5-5-5-5-----------------|
C|-------------------------------------------------2-2-2-2-2-5-2-5-|
   1 + 2 + 3 + 4 + 1 + 2 + 3 + 4 + 1 + 2 + 3 + 4 + 1 + 2 + 3 + 4 +

Bridge 2:19
F|-------------------------------------------------------------------|
C|o-----------------------------------------------------------------o|
G|o-000---0-000000--000---0-000000----------------------------------o|x4
C|----------------------------------000---0-000000--222---2-22222222-|
    1 + 2 + 3 + 4 + 1 + 2 + 3 + 4 + 1 + 2 + 3 + 4 + 1 + 2 + 3 + 4 +

Pre Chorus 2:49
F|---------------------------------|
C|---------------------------------|
G|---------------------------------|
C|-3---3---3-3---5-----------------|
   1 + 2 + 3 + 4 + 1 + 2 + 3 + 4 + 

Chorus 2:52
F|-----------------------------------------------------------------|
C|-----------------------------------------------------------------|
G|-0-0-0-0-0-0-0-0-0-0-0-0-0-2-3-5-3-3-3-3-3-3-5-\-----------------|
C|-------------------------------------------------5---5-5-5-5-5---|
   1 + 2 + 3 + 4 + 1 + 2 + 3 + 4 + 1 + 2 + 3 + 4 + 1 + 2 + 3 + 4 +

F|-----------------------------------------------------------------|
C|---------------------------2-5-20----------------5-5-5-5-5-5-5---|
G|-0-0-0-0-0-0-0-0-0-0-0-0-0-------3-3-3-3-3-3-5-------------------|
C|-----------------------------------------------------------------|
   1 + 2 + 3 + 4 + 1 + 2 + 3 + 4 + 1 + 2 + 3 + 4 + 1 + 2 + 3 + 4 +

3:08
F|-----------------------------------------------------------------|
C|-----------------------0-2---0-------------5-7-5-----------------|
G|-0---0---0---0---0---0---------023---3---3-----------------------|
C|-------------------------------------------------5---5-5-5---5---|
   1 + 2 + 3 + 4 + 1 + 2 + 3 + 4 + 1 + 2 + 3 + 4 + 1 + 2 + 3 + 4 +

F|-----------------------------------------------------------------|
C|-------------------------5-7-5-20----------------------------5---|
G|-0---0---0---0---0---0-----------3---3---3-3-3-3-10\-------------|
C|-----------------------------------------------------------------|
   1 + 2 + 3 + 4 + 1 + 2 + 3 + 4 + 1 + 2 + 3 + 4 + 1 + 2 + 3 + 4 +

Outro 3:22
F|------------------------------------------------------------------|
C|------------------------------------------------------------------|
G|-000---0-000000--000---0-000000-----------------------------------|
C|---------------------------------000---0-000000--222---2-22222222-|
   1 + 2 + 3 + 4 + 1 + 2 + 3 + 4 + 1 + 2 + 3 + 4 + 1 + 2 + 3 + 4 +

F|---------------------------------------------------------------------|
C|---------------------------------------------------------------------|
G|-000---0-000000--000---0-000000----------------------------------0---|
C|---------------------------------000---0-000000--222---2-2-2-2222----|
   1 + 2 + 3 + 4 + 1 + 2 + 3 + 4 + 1 + 2 + 3 + 4 + 1 + 2 + 3 + 4 + 1 + 
Tabbed by Dave Vucko

===============================================================================================
4. Forget About Me
===============================================================================================

Intro
F|-----------------------------------------------------------------|
C|-----------------------------------------------------------------|
G|-3-5-----------------1---1-3-3-3-3-5-----------------------------|
C|-----0-0---0-0-0---0---0-------------0-0---0-0-0---0-8-0-8-5-5-5-|
   1 + 2 + 3 + 4 + 1 + 2 + 3 + 4 + 1 + 2 + 3 + 4 + 1 + 2 + 3 + 4 +

F|------------------------------------------------------------------|
C|------------------------------------------------------------------|
G|-3-5-----------------1---1-3-3-3-0-0-0-0-0-0-0-0-3-3-0-3-0-3-0-5\-|
C|-----0-0---0-0-0---0---0------------------------------------------|
   1 + 2 + 3 + 4 + 1 + 2 + 3 + 4 + 1 + 2 + 3 + 4 + 1 + 2 + 3 + 4 +

Verse 0:11
F|-----------------------------------------------------------------|
C|-----------------------------------------------------------------|
G|-------------------------5---------------------------------------|
C|-------------------------------3---3-3-3-3-3-3-3-3-3-3-3-3-3-3-3-|
   1 + 2 + 3 + 4 + 1 + 2 + 3 + 4 + 1 + 2 + 3 + 4 + 1 + 2 + 3 + 4 +

F|-----------------------------------------------------------------|
C|-----------------------------------------------------------------|
G|-1-1-1-1-1-1-1-1-1-1-1-1-1-1-1-1-0-0-0-0-0-0-0-0-0-0-0-0-0-0-0---|
C|-----------------------------------------------------------------|
   1 + 2 + 3 + 4 + 1 + 2 + 3 + 4 + 1 + 2 + 3 + 4 + 1 + 2 + 3 + 4 +

F|-----------------------------------------------------------------|
C|-----------------------------------------------------------------|
G|-----------------------------------------------------------------|
C|-0-0-0-0-0-0-0-0-0-0-0-0-0-0-0-0-3-3-3-3-3-3-3-3-3-3-3-3-3-3-3-3-|
   1 + 2 + 3 + 4 + 1 + 2 + 3 + 4 + 1 + 2 + 3 + 4 + 1 + 2 + 3 + 4 +

F|-----------------------------------------------------------------|
C|-----------------------------------------------------------------|
G|-1-1-1-1-1-1-1-1-1-1-1-1-1-1-1-1-0-0-0-0-0-0-0-0-0-0-0-0-0-0-0-0-|
C|-----------------------------------------------------------------|
   1 + 2 + 3 + 4 + 1 + 2 + 3 + 4 + 1 + 2 + 3 + 4 + 1 + 2 + 3 + 4 +

Rest

Chorus 0:35
F|-----------------------------------------------------------------|
C|-----------------------------------------------------------------|
G|-----------------------------------------------------------------|
C|-0-0-0---0-0-0---0-0-0-0---0-0---3-3-3---3-3-3---3-3-3-3---3-3---|
   1 + 2 + 3 + 4 + 1 + 2 + 3 + 4 + 1 + 2 + 3 + 4 + 1 + 2 + 3 + 4 +

F|-----------------------------------------------------------------|
C|----------------/8-8-8-8---8-8------------------/7-7-7-7-7-7-7-7-|
G|-1-1-1---1-1-1-------------------0-0-0-0-0-0-0-0-----------------|
C|-----------------------------------------------------------------|
   1 + 2 + 3 + 4 + 1 + 2 + 3 + 4 + 1 + 2 + 3 + 4 + 1 + 2 + 3 + 4 +

0:45
F|-----------------------------------------------------------------|
C|-----------------------------------------------------------------|
G|-----------------------------------------------------------------|
C|-0-0-0---0-0-0---0-0-0-0---0-0-0-3-3-3---3-3-3---3-3-3-3---3-3-3-|
   1 + 2 + 3 + 4 + 1 + 2 + 3 + 4 + 1 + 2 + 3 + 4 + 1 + 2 + 3 + 4 +

F|-----------------------------------------------------------------|
C|----------------/8-8-8-8---8-8-8---------------------------------|
G|-1-1-1---1-1-1-------------------0-0-0-0-0-0-0-0-----------------|
C|-------------------------------------------------7-\-------------|
   1 + 2 + 3 + 4 + 1 + 2 + 3 + 4 + 1 + 2 + 3 + 4 + 1 + 2 + 3 + 4 +

Interlude 0:55
F|-----------------------------------------------------------------|
C|-----------------------------------------------------------------|
G|-3-5-----------------1---1-3-3-3-3-5-----------------------------|
C|-----0-0---0-0-0---0---0-------------0-0---0-0-0---0-8-0-8-5-5-5-|
   1 + 2 + 3 + 4 + 1 + 2 + 3 + 4 + 1 + 2 + 3 + 4 + 1 + 2 + 3 + 4 +

F|------------------------------------------------------------------|
C|------------------------------------------------------------------|
G|-3-5-----------------1---1-3-3-3-0-0-0-0-0-0-0-0-3-3-0-3-0-3-0-5--|
C|-----0-0---0-0-0---0---0------------------------------------------|
   1 + 2 + 3 + 4 + 1 + 2 + 3 + 4 + 1 + 2 + 3 + 4 + 1 + 2 + 3 + 4 +

Verse 1:05
F|-----------------------------------------------------------------|
C|-----------------2-3-2---2-3-2-------------------3-2-0---3-2-0---|
G|---5-5-5-5-5-5-5-------3-------3-----------------------3-------3-|
C|---------------------------------3-3-3-3-3-3-3-3-----------------|
   1 + 2 + 3 + 4 + 1 + 2 + 3 + 4 + 1 + 2 + 3 + 4 + 1 + 2 + 3 + 4 +

F|-----------------------------------------------------------------|
C|-----------------------------------------------------------------|
G|-1-1-1-1-1-1-1-1-1-1-1-1-1-1-1-1-0-0-0-0-0-0-0-0-0-0-0-0-0-0-0-0-|
C|-----------------------------------------------------------------|
   1 + 2 + 3 + 4 + 1 + 2 + 3 + 4 + 1 + 2 + 3 + 4 + 1 + 2 + 3 + 4 +

1:15
F|-----------------------------------------------------------------|
C|-------------------7-5---5-7-5-----------------------------------|
G|-5-5-5-5-5-5-5-5-5-----7-------7-------------------------------0-|
C|---------------------------------3-3-3-3-3-3-3-3-3-3-3-3-3-3-5---|
   1 + 2 + 3 + 4 + 1 + 2 + 3 + 4 + 1 + 2 + 3 + 4 + 1 + 2 + 3 + 4 +

F|-----------------------------------------------------------------|
C|-----------------------------------------------------------------|
G|-1-1-1-1-1-1-1-1-1-1-1-1-5-5-7-7-0-0-0-0-0-0-0-0-0-0-0---0-0-0---|
C|-------------------------------------------------------5-------5-|
   1 + 2 + 3 + 4 + 1 + 2 + 3 + 4 + 1 + 2 + 3 + 4 + 1 + 2 + 3 + 4 +

Rest

Chorus 1:27
F|-----------------------------------------------------------------|
C|-----------------------------------------------------------------|
G|-----------------------------------------------------------------|
C|-0-0-0-0-0-0-0---0-0-0-0---0-0---3-3-3-3-3-3-3---3-3-3-3---3-3---|
   1 + 2 + 3 + 4 + 1 + 2 + 3 + 4 + 1 + 2 + 3 + 4 + 1 + 2 + 3 + 4 +

F|-----------------------------------------------------------------|
C|----------------/8-8-8-8---8-8------------------/7-7-7-7-7-7-7-7-|
G|-1-1-1-1-1-1-1-------------------0-0-0-0-0-0-0-0-----------------|
C|-----------------------------------------------------------------|
   1 + 2 + 3 + 4 + 1 + 2 + 3 + 4 + 1 + 2 + 3 + 4 + 1 + 2 + 3 + 4 +

1:38
F|-----------------------------------------------------------------|
C|-----------------------------------------------------------------|
G|-----------------------------------------------------------------|
C|-0-0-0---0-0-0---0-0-0-0---0-0-0-3-3-3---3-3-3---3-3-3-3---3-3-3-|
   1 + 2 + 3 + 4 + 1 + 2 + 3 + 4 + 1 + 2 + 3 + 4 + 1 + 2 + 3 + 4 +

F|-----------------------------------------------------------------|
C|----------------/8-8-8-8---8-8-8---------------------------------|
G|-1-1-1---1-1-1-------------------0-0-0-0-0-0-0-0-----------------|
C|-------------------------------------------------7-\-------------|
   1 + 2 + 3 + 4 + 1 + 2 + 3 + 4 + 1 + 2 + 3 + 4 + 1 + 2 + 3 + 4 +

Bridge 1:48
F|-----------------------------------------------------------------|
C|-----------------------------------------------------------------|
G|-----------------------------------------------------------------|
C|-0-------------------------------------------------------/---/---|
   1 + 2 + 3 + 4 + 1 + 2 + 3 + 4 + 1 + 2 + 3 + 4 + 1 + 2 + 3 + 4 +

F|-----------------------------------------------------------------|
C|-----------------------------------------------------------------|
G|-----------------------------------------------------------------|
C|-0-------0-------0-------0-------0-------0-0-0-0-----------------|
   1 + 2 + 3 + 4 + 1 + 2 + 3 + 4 + 1 + 2 + 3 + 4 + 1 + 2 + 3 + 4 +

1:58
F|------------------------------------------------------------------|
C|o-----------------------------------------------------------------|
G|o-----------------------------------------------------------------|
C|--0-0-----000-------0-0-0---0---0---0-000-000---------------------|
    1 + 2 + 3 + 4 + 1 + 2 + 3 + 4 + 1 + 2 + 3 + 4 + 1 + 2 + 3 + 4 +

F|------------------------------------------------------------------|
C|-----------------------------------------------------------------o|
G|-----------------------------------------------------------------o|
C|-0-0-----000-------0-0-0---0---0---0-000-000-------------0-0------|
   1 + 2 + 3 + 4 + 1 + 2 + 3 + 4 + 1 + 2 + 3 + 4 + 1 + 2 + 3 + 4 +

Solo 2:18
F|-----------------------------------------------------------------|
C|-----------------------------------------------------------------|
G|-----------------------------------------------------------------|
C|-0-0---0-0-0---0-2-2-2-2-2-2-2-2-3-3-3-3-3-3-3-3-2-2-2-2-2-2-2-2-|
   1 + 2 + 3 + 4 + 1 + 2 + 3 + 4 + 1 + 2 + 3 + 4 + 1 + 2 + 3 + 4 +

F|-----------------------------------------------------------------|
C|-------------------------------------------------5-5-5-5-5-5-5-5-|
G|-5-5-5-5-5-5-5-5-7-7-7-7-7-7-7-7-8-8-8-8-8-8-8-8-----------------|
C|-----------------------------------------------------------------|
   1 + 2 + 3 + 4 + 1 + 2 + 3 + 4 + 1 + 2 + 3 + 4 + 1 + 2 + 3 + 4 +

Chorus 2:28
F|-----------------------------------------------------------------|
C|-----------------------------------------------------------------|
G|-----------------------------------------------------------------|
C|-0-0-0---0-0-0---0-0-0-0---0-0---3-3-3---3-3-3---3-3-3-3---3-3---|
   1 + 2 + 3 + 4 + 1 + 2 + 3 + 4 + 1 + 2 + 3 + 4 + 1 + 2 + 3 + 4 +

F|-----------------------------------------------------------------|
C|------------------------------------------------/7-7-7---7-7-7-7-|
G|-1-1-1-1-1-1-1-1-1-1-1-1-1-1-1-1-0-0-0-0-0-0-0-0-----------------|
C|-----------------------------------------------------------------|
   1 + 2 + 3 + 4 + 1 + 2 + 3 + 4 + 1 + 2 + 3 + 4 + 1 + 2 + 3 + 4 +

2:38
F|--------------------------------------------------------------------------------|
C|----------------/12-12-12-10-12---10-12----------------/15-15-15-15-15-15-15-15-|
G|-5-5-5-5-5-5-5-5------------------------8-8-8-8-8-8-8-8-------------------------|
C|--------------------------------------------------------------------------------|
   1 + 2 + 3 + 4 + 1  +  2  +  3  + 4  +  1 + 2 + 3 + 4 + 1  +  2  +  3  +  4  +

F|-----------------------------------------------------------------|
C|-8-8-8-8-8-8-8-8-8-8-8-8-8-8-8-8---------------------------------|
G|---------------------------------7-7-7-7-7-7-7-7-----------------|
C|-------------------------------------------------7-\-------------|
   1 + 2 + 3 + 4 + 1 + 2 + 3 + 4 + 1 + 2 + 3 + 4 + 1 + 2 + 3 + 4 +

2:49
F|-----------------------------------------------------------------|
C|-----------------------------------------------------------------|
G|-----------------------------------------------------------------|
C|-0-0-----000-------0-0-0---0---0---0-000-000---------------------|
   1 + 2 + 3 + 4 + 1 + 2 + 3 + 4 + 1 + 2 + 3 + 4 + 1 + 2 + 3 + 4 +

F|---------------------------------------------------------------------------------|
C|---------------------------------------------------------------------------------|
G|---------------------------------------------------------------------------------|
C|-0-0-0-0-000-------0-0-0---0---0---0-000-000-------------0-0-----0-0-----000-----|
   1 + 2 + 3 + 4 + 1 + 2 + 3 + 4 + 1 + 2 + 3 + 4 + 1 + 2 + 3 + 4 + 1 + 2 + 3 + 4 +
Tabbed by Dave Vucko

===============================================================================================
5. You're Insane
===============================================================================================

0:01 Intro
F|-----------------------------------------------------------------|
C|-----------------------------------------------------------------|
G|-----------------------------------------------------------------|
C|-0-------------------------------------------------------/---/---|
   1 + 2 + 3 + 4 + 1 + 2 + 3 + 4 + 1 + 2 + 3 + 4 + 1 + 2 + 3 + 4 +

F|-----------------------------------------------------------------|
C|-----------------------------------------------------------------|
G|-----------------------------------------------------------------|
C|-0-------------------------------------------------6-6-6-6-5-3-0-|
   1 + 2 + 3 + 4 + 1 + 2 + 3 + 4 + 1 + 2 + 3 + 4 + 1 + 2 + 3 + 4 +

0:15
F|-----------------------------------------------------------------|
C|-----------------------------------------------------------------|
G|-----------------------------------------------------------------|
C|-3-0-0-5-0-0-0-0-0-6-0-0-6-0-5-0-3-0-0-5-0-0-0-0-0-6-6-6-6-5-3---|
   1 + 2 + 3 + 4 + 1 + 2 + 3 + 4 + 1 + 2 + 3 + 4 + 1 + 2 + 3 + 4 +

0:21 Verse x2
F|-------------------------------------------------------------------|
C|o-----------------------------------------------------------------o|
G|o-----------------------------------------------------------------o|
C|--3-0-0-0---00000-------0-5-6-5-0-3-0-0-0---00000--------5650-3\---|
    1 + 2 + 3 + 4 + 1 + 2 + 3 + 4 + 1 + 2 + 3 + 4 + 1 + 2 + 3 + 4 +

0:35 Pre-Chorus
F|-----------------------------------------------------------------|
C|-----------------------------------------------------------------|
G|-----------------------------------------------------------------|
C|-3-0-0-5-0-0-0-0-0-6-0-0-6-0-5---3-0-0-5-0-0-0-0-0-0-0-0-00000000|
   1 + 2 + 3 + 4 + 1 + 2 + 3 + 4 + 1 + 2 + 3 + 4 + 1 + 2 + 3 + 4 +

F|-----------------------------------------------------------------|
C|-----------------------------------------------------------------|
G|-----------------------------------------------------------------|
C|-3-0-0-5-0-0-0-0-0-6-0-0-6-0-5---3-0-0-5-0-0-0-0-0-6-6-6-6-5-3---|
   1 + 2 + 3 + 4 + 1 + 2 + 3 + 4 + 1 + 2 + 3 + 4 + 1 + 2 + 3 + 4 +

0:49 Chorus
F|-----------------------------------------------------------------|
C|-----------------------------------------------------------------|
G|-----------------0-0-0-0-0-0-0-0-1-1-1-1-1-1-1-1---------3-3-3-3-|
C|-0-0-0-0-0-0-0-0---------------------------------3-3-3-3---------|
   1 + 2 + 3 + 4 + 1 + 2 + 3 + 4 + 1 + 2 + 3 + 4 + 1 + 2 + 3 + 4 +

F|-----------------------------------------------------------------|
C|-----------------------------------------------------------------|
G|-----------------0-0-0-0-0-0-0-0-1-1-1-1-1-1-1-1-----------------|
C|-0-0-0-0-0-0-0-0---------------------------------3-3-3-3-2-2-2-2-|
   1 + 2 + 3 + 4 + 1 + 2 + 3 + 4 + 1 + 2 + 3 + 4 + 1 + 2 + 3 + 4 +

1:03 Interlude
F|-----------------------------------------------------------------|
C|-----------------------------------------------------------------|
G|-----------------------------------------------------------------|
C|-3-0-0-5-0-0-0-0-0-6-0-0-6-0-5-0-3-0-0-5-0-0-0-0-0-6-6-6-6-5-3---|
   1 + 2 + 3 + 4 + 1 + 2 + 3 + 4 + 1 + 2 + 3 + 4 + 1 + 2 + 3 + 4 +

1:09 Verse x2
F|-------------------------------------------------------------------|
C|o-----------------------------------------------------------------o|
G|o-----------------------------------------------------------------o|
C|--3-0-0-0---00000-------0-5-6-5-0-3-0-0-0---00000--------5650-3\---|
    1 + 2 + 3 + 4 + 1 + 2 + 3 + 4 + 1 + 2 + 3 + 4 + 1 + 2 + 3 + 4 +

1:23 Pre-Chorus
F|-----------------------------------------------------------------|
C|-----------------------------------------------------------------|
G|-----------------------------------------------------------------|
C|-3-0-0-5-0-0-0-0-0-6-0-0-6-0-5---3-0-0-5-0-0-0-0-0-0-0-0-00000000|
   1 + 2 + 3 + 4 + 1 + 2 + 3 + 4 + 1 + 2 + 3 + 4 + 1 + 2 + 3 + 4 +

F|-----------------------------------------------------------------|
C|-----------------------------------------------------------------|
G|-----------------------------------------------------------------|
C|-3-0-0-5-0-0-0-0-0-6-0-0-6-0-5---3-0-0-5-0-0-0-0-0-6-6-6-6-5-3---|
   1 + 2 + 3 + 4 + 1 + 2 + 3 + 4 + 1 + 2 + 3 + 4 + 1 + 2 + 3 + 4 +

1:37 Chorus x2
F|------------------------------------------------------------------|
C|o-----------------------------------------------------------------|
G|o-----------------0-0-0-0-0-0-0-0-1-1-1-1-1-1-1-1---------3-3-3-3-|
C|--0-0-0-0-0-0-0-0---------------------------------3-3-3-3---------|
    1 + 2 + 3 + 4 + 1 + 2 + 3 + 4 + 1 + 2 + 3 + 4 + 1 + 2 + 3 + 4 +

F|------------------------------------------------------------------|
C|-----------------------------------------------------------------o|
G|-----------------0-0-0-0-0-0-0-0-1-1-1-1-1-1-1-1-----------------o|
C|-0-0-0-0-0-0-0-0---------------------------------3-3-3-3-2-2-2-2--|
   1 + 2 + 3 + 4 + 1 + 2 + 3 + 4 + 1 + 2 + 3 + 4 + 1 + 2 + 3 + 4 +

2:04 Bridge x2
F|-------------------------------------------------------------------|
C|o------------HEY!!-----------HEY!!------------HEY!!---------------o|
G|o-----------------------------------------------------------------o|
C|--3-0-0-5-0-0-----3-0-0-5-0-0-----3-0-0-5-0-0-------6-6-6-6-5-3----|
    1 + 2 + 3 + 4 + 1 + 2 + 3 + 4 + 1 + 2 + 3 + 4 + 1 + 2 + 3 + 4 +

2:18 Solo
F|-----------------------------------------------------------------|
C|-----------------------------------------------------------------|
G|-----------------------------------------------------------------|
C|-3-0-0-5-0-0-0-0-0-6-0-0-6-0-5---3-0-0-5-0-0-0-0-0-0-0-0-0-0-0-0-|
   1 + 2 + 3 + 4 + 1 + 2 + 3 + 4 + 1 + 2 + 3 + 4 + 1 + 2 + 3 + 4 +

F|-----------------------------------------------------------------|
C|-----------------------------------------------------------------|
G|-----------------------------------------------------------------|
C|-3-0-0-5-0-0-0-0-0-6-0-0-6-0-5---3-0-0-5-0-0-0-0-0-6-6-6-6-5-3-0-|
   1 + 2 + 3 + 4 + 1 + 2 + 3 + 4 + 1 + 2 + 3 + 4 + 1 + 2 + 3 + 4 +

F|-------------------------------------------------|
C|-------------------------------------------------|
G|-------------------------------------------------|
C|---6-6-6-6-5-3-0---6-6-6-6-5-3-0-----------------|
   1 + 2 + 3 + 4 + 1 + 2 + 3 + 4 + 1 + 2 + 3 + 4 +

2:37 Chorus x2
F|-----------------------------------------------------------------|
C|-----------------------------------------------------------------|
G|-----------------0-0-0-0-0-0-0-0-1-1-1-1-1-1-1-1---------3-3-3-3-|
C|-0-0-0-0-0-0-0-0---------------------------------3-3-3-3---------|
   1 + 2 + 3 + 4 + 1 + 2 + 3 + 4 + 1 + 2 + 3 + 4 + 1 + 2 + 3 + 4 +

F|-----------------------------------------------------------------|
C|-----------------------------------------------------------------|
G|-----------------0-0-0-0-0-0-0-0-1-1-1-1-1-1-1-1-----------------|
C|-0-0-0-0-0-0-0-0---------------------------------3-3-3-3-2-2-2-2-|
   1 + 2 + 3 + 4 + 1 + 2 + 3 + 4 + 1 + 2 + 3 + 4 + 1 + 2 + 3 + 4 +

F|-----------------------------------------------------------------|
C|-----------------------------------------------------------------|
G|-----------------0-0-0-0-0-0-0-0-1-1-1-1-1-1-1-1---------33333333|
C|-0-0-0-0-0-0-0-0---------------------------------3-3-3-3---------|
   1 + 2 + 3 + 4 + 1 + 2 + 3 + 4 + 1 + 2 + 3 + 4 + 1 + 2 + 3 + 4 +

F|-----------------------------------------------------------------|
C|-----------------------------------------------------------------|
G|-----------------0-0-0-0-0-0-0-0-1-1-1-1-1-1-1-1-----------------|
C|-0-0-0-0-0-0-0-0---------------------------------3-3-3-3-2-2-2-2-|
   1 + 2 + 3 + 4 + 1 + 2 + 3 + 4 + 1 + 2 + 3 + 4 + 1 + 2 + 3 + 4 +

3:04 Outro
F|-------------------------------------------------------------------|
C|o------------HEY!!-----------HEY!!------------HEY!!---------------o|
G|o-----------------------------------------------------------------o|
C|--3-0-0-5-0-0-----3-0-0-5-0-0-----3-0-0-5-0-0-------6-6-6-6-5-3----|
    1 + 2 + 3 + 4 + 1 + 2 + 3 + 4 + 1 + 2 + 3 + 4 + 1 + 2 + 3 + 4 +

F|-----------------------------------------------------------------|
C|-----------------------------------------------------------------|
G|-----------------------------------------------------------------|
C|-0---------------------------------------------------------------|
   1 + 2 + 3 + 4 + 1 + 2 + 3 + 4 + 1 + 2 + 3 + 4 + 1 + 2 + 3 + 4 +

Tabbed By Jack Mills
Edited by Dave Vucko

===============================================================================================
6. Chemical Love
===============================================================================================

Intro 0:19
F|-------|-------------------------------------------------------------------|
C|-------|o-----------------------------------------------------------------o|
G|-2-2-2-|o-0-2/9-2---2/9-2---2/9-2-5-5-7-7-0-2/9-2---2/9-2---2/9-2-5-5-7-7-o|
C|-------|-------------------------------------------------------------------|
   + 4 +    1 + 2 + 3 + 4 + 1 + 2 + 3 + 4 + 1 + 2 + 3 + 4 + 1 + 2 + 3 + 4 +

Verse 0:37
F|-------------------------------------------------------------------|
C|o-----------------------------------------------------------------o|
G|o-0-2/9-2-2-2/9-2-2-2/9-2-5-5-7-7-0-2/9-2-2-2/9-2-2-2/9-2-5-5-7-7-o|x4
C|-------------------------------------------------------------------|
    1 + 2 + 3 + 4 + 1 + 2 + 3 + 4 + 1 + 2 + 3 + 4 + 1 + 2 + 3 + 4 +

Chorus 1:10
F|-------------------------------------------------------------------|
C|o-----------------------------------------------------------------o|
G|o-0-2/9-2---2/9-2---2/9-2-5-5-7-7-0-2/9-2---2/9-2---2/9-2-5-5-7-7-o|
C|-------------------------------------------------------------------|
    1 + 2 + 3 + 4 + 1 + 2 + 3 + 4 + 1 + 2 + 3 + 4 + 1 + 2 + 3 + 4 +

Verse 1:27
F|-------------------------------------------------------------------|
C|o-----------------------------------------------------------------o|
G|o-0-2/9-2-2-2/9-2-2-2/9-2-5-5-7-7-0-2/9-2-2-2/9-2-2-2/9-2-5-5-7-7-o|x4
C|-------------------------------------------------------------------|
    1 + 2 + 3 + 4 + 1 + 2 + 3 + 4 + 1 + 2 + 3 + 4 + 1 + 2 + 3 + 4 +

Chorus 2:00
F|-------------------------------------------------------------------|
C|o-----------------------------------------------------------------o|
G|o-0-2/9-2---2/9-2---2/9-2-5-5-7-7-0-2/9-2---2/9-2---2/9-2-5-5-7-7-o|
C|-------------------------------------------------------------------|
    1 + 2 + 3 + 4 + 1 + 2 + 3 + 4 + 1 + 2 + 3 + 4 + 1 + 2 + 3 + 4 +

Solo 2:17
F|-------------------------------------------------------------------|
C|o-----------------------------------------------------------------o|
G|o-0-2/9-2---2/9-2---2/9-2-5-5-7-7-0-2/9-2---2/9-2---2/9-2-5-5-7-7-o|
C|-------------------------------------------------------------------|
    1 + 2 + 3 + 4 + 1 + 2 + 3 + 4 + 1 + 2 + 3 + 4 + 1 + 2 + 3 + 4 +

F|-----------------------------------------------------------------|
C|-----------------------------------------------------------------|
G|-2---------------------------------------------------------------|
C|-----------------------------------------------------------------|
   1 + 2 + 3 + 4 + 1 + 2 + 3 + 4 + 1 + 2 + 3 + 4 + 1 + 2 + 3 + 4 +

Rest

Chorus 2:50
F|-------|-------------------------------------------------------------------|
C|-------|o-----------------------------------------------------------------o|
G|-2-2-2-|o-0-2/9-2---2/9-2---2/9-2-5-5-7-7-0-2/9-2---2/9-2---2/9-2-5-5-7-7-o|
C|-------|-------------------------------------------------------------------|
   + 4 +    1 + 2 + 3 + 4 + 1 + 2 + 3 + 4 + 1 + 2 + 3 + 4 + 1 + 2 + 3 + 4 +

Outro 3:07
F|-------------------------------------------------------------------|
C|o-----------------------------------------------------------------o|
G|o-0-2/9-2---2/9-2---2/9-2-5-5-7-7-0-2/9-2---2/9-2---2/9-2-5-5-7-7-o|
C|-------------------------------------------------------------------|
    1 + 2 + 3 + 4 + 1 + 2 + 3 + 4 + 1 + 2 + 3 + 4 + 1 + 2 + 3 + 4 +
Tabbed by Dave Vucko

===============================================================================================
7. Picture Perfect
===============================================================================================

Intro
F|-----------------------------------------------------------------|
C|-----------------------------------------------------------------|
G|-----------------------------------------------------------------|
C|-0-----------0h2h3-------------/-10--------------5---------------|
   1 + 2 + 3 + 4 + 1 + 2 + 3 + 4 + 1 + 2 + 3 + 4 + 1 + 2 + 3 + 4 +

F|-----------------------------------------------------------------|
C|-----------------------------------------------------------------|
G|-----------------------------------------------------------------|
C|-0---------------3-------------/-10--------------5---------------|
   1 + 2 + 3 + 4 + 1 + 2 + 3 + 4 + 1 + 2 + 3 + 4 + 1 + 2 + 3 + 4 +

Verse 0:11
F|-------------------------------------------------------------------|
C|o-----------------------------------------------------------------o|
G|o-----------------------------------------------------------------o|x3
C|--0---------------3-------------/-10--------------5----------------|
    1 + 2 + 3 + 4 + 1 + 2 + 3 + 4 + 1 + 2 + 3 + 4 + 1 + 2 + 3 + 4 +

F|-----------------------------------------------------------------|
C|-----------------8-------7-------5---\---------------------------|
G|---------------8-------------------------3-------r---------------|
C|-8---------------------------------------------------------------|
   1 + 2 + 3 + 4 + 1 + 2 + 3 + 4 + 1 + 2 + 3 + 4 + 1 + 2 + 3 + 4 +

Chorus 0:37
F|-----------------------------------------------------------------|
C|-----------------------------------------------5---5-----5---\---|
G|-------------------------------1-3-----3-3-----------------------|
C|-0-------0-----3---3-----3---------------------------------------|
   1 + 2 + 3 + 4 + 1 + 2 + 3 + 4 + 1 + 2 + 3 + 4 + 1 + 2 + 3 + 4 +

F|-----------------------------------------------------------------|
C|-----------------------------------------------------------------|
G|-------------------------------1-3-----3-3-------------------0---|
C|-0-------0-----3---3-----3---------------------5---5---3-5-------|
   1 + 2 + 3 + 4 + 1 + 2 + 3 + 4 + 1 + 2 + 3 + 4 + 1 + 2 + 3 + 4 +

F|-----------------------------------------------------------------|
C|-----------------------------------------------------------------|
G|-------------------------------1-3-----3-3---------------------0-|
C|-0-------0-----3---3-----3---------------------5---5---5-5---5---|
   1 + 2 + 3 + 4 + 1 + 2 + 3 + 4 + 1 + 2 + 3 + 4 + 1 + 2 + 3 + 4 +

F|-----------------------------------------------------------------|
C|-----------------------------------------------------------------|
G|-1---1---1---1---1---1---1---1---3---3---3---3-------------------|
C|-----------------------------------------------------------------|
   1 + 2 + 3 + 4 + 1 + 2 + 3 + 4 + 1 + 2 + 3 + 4 + 1 + 2 + 3 + 4 +

Interlude 1:01
F|-----------------------------------------------------------------|
C|-----------------------------------------------------------------|
G|-5-----5-5---------------------1-3-----3-3-----------------------|
C|---------------3---3---------------------------5---5-5-----------|
   1 + 2 + 3 + 4 + 1 + 2 + 3 + 4 + 1 + 2 + 3 + 4 + 1 + 2 + 3 + 4 +

F|-----------------------------------------------------------------|
C|---------------3---3-3---------5---------------5---5-5---5-7-5---|
G|-5-----5-5-----------------------3-----3-3---------------------8-|
C|-----------------------------------------------------------------|
   1 + 2 + 3 + 4 + 1 + 2 + 3 + 4 + 1 + 2 + 3 + 4 + 1 + 2 + 3 + 4 +

Verse 1:13
F|-----------------------------------------------------------------|
C|-----------------------------------------------------------------|
G|---------------------------------3-----3-3-----------------------|
C|-0-----0-0-----3---3-3-------------------------5---5-5---r---5---|
   1 + 2 + 3 + 4 + 1 + 2 + 3 + 4 + 1 + 2 + 3 + 4 + 1 + 2 + 3 + 4 +

F|-----------------------------------------------------------------|
C|-----------------------------------------------------------------|
G|---------------------------------3-----3-3-----------------------|
C|-0-----0-0-----3---3-3-------------------------5---5-5---r---3---|
   1 + 2 + 3 + 4 + 1 + 2 + 3 + 4 + 1 + 2 + 3 + 4 + 1 + 2 + 3 + 4 +

F|--------------------------------------------------------------------|
C|--------------------------------------------------------------------|
G|----------------------------------------------------------------0---|
C|-0-----0-0-----3---3-3---------/-10-----10-10-----5---5-5---r-------|
   1 + 2 + 3 + 4 + 1 + 2 + 3 + 4 + 1  + 2 +  3  + 4 + 1 + 2 + 3 + 4 +

F|---------------------------------------------------5-------------|
C|-------------------------------------------------------5---5-3-2-|
G|-1-----1-r---1-1---1-1---1---1---3---3---3---3---3---3---3-------|
C|-----------------------------------------------------------------|
   1 + 2 + 3 + 4 + 1 + 2 + 3 + 4 + 1 + 2 + 3 + 4 + 1 + 2 + 3 + 4 +

Chorus 1:39
F|-----------------------------------------------------------------|
C|-----------------------------------------------------------------|
G|-------------------------------1-3-----3-3-----------------------|
C|-0-----0-0-----3---3-----3---3-----------------5---5-5---5---5-3-|
   1 + 2 + 3 + 4 + 1 + 2 + 3 + 4 + 1 + 2 + 3 + 4 + 1 + 2 + 3 + 4 +

F|-----------------------------------------------------------------|
C|-----------------------------------------------------------------|
G|-------------------------------1-3-----3-3-----------------0-----|
C|-0-----0-0---5-3---3-3-------------------------5---5-----5---5-3-|
   1 + 2 + 3 + 4 + 1 + 2 + 3 + 4 + 1 + 2 + 3 + 4 + 1 + 2 + 3 + 4 +

F|-----------------------------------------------------------------|
C|-----------------------------------------------------------------|
G|-------------------------------1-3-----3-3-----------------------|
C|-0------0-0--5-3---3-3-------3-----------------5---5-5---5-7-5-7-|
   1 + 2 + 3 + 4 + 1 + 2 + 3 + 4 + 1 + 2 + 3 + 4 + 1 + 2 + 3 + 4 +

F|---------------------3-------------------------------------------|
C|-------------------------3-----------------5-------------5-------|
G|-1---1---1---1---1-----------1---3---3---3---3-------3-------3---|
C|-----------------------------------------------------------------|
   1 + 2 + 3 + 4 + 1 + 2 + 3 + 4 + 1 + 2 + 3 + 4 + 1 + 2 + 3 + 4 +

Solo 2:03
F|-----------------------------------------------------------------|
C|---------------3-------------------------------------------------|
G|-5-----5-5---------------------1-3-----3-3-----------------------|
C|-------------------3-3-------------------------5---5-5---5-7-5-7-|
   1 + 2 + 3 + 4 + 1 + 2 + 3 + 4 + 1 + 2 + 3 + 4 + 1 + 2 + 3 + 4 +

F|-----------------------------------------------------------------|
C|---------------3-------------------------------------------------|
G|-5-----5-5---------------------1-3-----3-3-----------------------|
C|-------------------3-3-------------------------5---5-5-5-5-7-5-7-|
   1 + 2 + 3 + 4 + 1 + 2 + 3 + 4 + 1 + 2 + 3 + 4 + 1 + 2 + 3 + 4 +

F|-----------------------------------------------------------------|
C|-----------------------------------------------------------------|
G|-5---5---5---5-----------------1-3-----3-3-----------------0-1-3-|
C|---------------3---3-3---3---------------------5---5-5---5-------|
   1 + 2 + 3 + 4 + 1 + 2 + 3 + 4 + 1 + 2 + 3 + 4 + 1 + 2 + 3 + 4 +

F|-----------------------------------------------------------------|
C|-----------------------------------------------------------------|
G|-1---1---1---1---1---1---1---1---3---3---3---3-------------------|
C|-----------------------------------------------------------------|
   1 + 2 + 3 + 4 + 1 + 2 + 3 + 4 + 1 + 2 + 3 + 4 + 1 + 2 + 3 + 4 +

Bridge 2:28
F|-------------------------------------------------------------------|
C|o-----------------------------------------------------------------o|
G|o-----------------------------------------------------------------o|x3
C|--12----------\---3---------/-8---10----------\---5-----------/----|
    1 + 2 + 3 + 4 + 1 + 2 + 3 + 4 + 1 + 2 + 3 + 4 + 1 + 2 + 3 + 4 +

F|---------------------------------------------------------------------------------|
C|---------8-------8-------7-------5---\-------------------------------------------|
G|-------------8---------------------------3-----------------------r---------------|
C|-8-------------------------------------------------------------------------------|
   1 + 2 + 3 + 4 + 1 + 2 + 3 + 4 + 1 + 2 + 3 + 4 + 1 + 2 + 3 + 4 + 1 + 2 + 3 + 4 +

Chorus 2:55
F|-----------------------------------------------------------------|
C|-----------------------------------------------------------------|
G|-------------------------------1-3-----3-3-----------------------|
C|-0-----0-0-----3---3-3-------3-----------------5---5-5---5-------|
   1 + 2 + 3 + 4 + 1 + 2 + 3 + 4 + 1 + 2 + 3 + 4 + 1 + 2 + 3 + 4 +

F|-----------------------------------------------------------------|
C|-----------------------------------------------------------------|
G|-5-----5-5---\-----------------1-3-----3-3-----------------0-----|
C|---------------3---3-3-------------------------5-----5---5---5-3-|
   1 + 2 + 3 + 4 + 1 + 2 + 3 + 4 + 1 + 2 + 3 + 4 + 1 + 2 + 3 + 4 +

F|-----------------------------------------------------------------|
C|-----------------------------------------------5---5-5---5-7-5---|
G|-5---\-------------------------5-3-----3-3---------------------8-|
C|--------0-0----3---3-3-5-3---------------------------------------|
   1 + 2 + 3 + 4 + 1 + 2 + 3 + 4 + 1 + 2 + 3 + 4 + 1 + 2 + 3 + 4 +

F|-----------------------------------------------------------------|
C|-----------------------------------------------------------------|
G|-1---1---1---1---1---1---1---1---3---3---3---3-------------------|
C|-----------------------------------------------------------------|
   1 + 2 + 3 + 4 + 1 + 2 + 3 + 4 + 1 + 2 + 3 + 4 + 1 + 2 + 3 + 4 +

Outro 3:19
F|-----------------------------------------------------------------|
C|-----------------------------------------------------------------|
G|-5-----5-5---/-8---------------1-3-----3-3---------------------3-|
C|-------------------3-3-------------------------5---5-5---5---5---|
   1 + 2 + 3 + 4 + 1 + 2 + 3 + 4 + 1 + 2 + 3 + 4 + 1 + 2 + 3 + 4 +

F|-----------------------------------------------------------------|
C|-----------------------------------------------5---5-5---5-7-5---|
G|-5-----5-5---\-----------------1-3-----3-3---------------------8-|
C|---------------3---3-3-------------------------------------------|
   1 + 2 + 3 + 4 + 1 + 2 + 3 + 4 + 1 + 2 + 3 + 4 + 1 + 2 + 3 + 4 +

F|-----------------------------------------------------------------|
C|-----------------------------------------------------------------|
G|-----------------------------------------------------------------|
C|-0---------------------------------------------------------------|
   1 + 2 + 3 + 4 + 1 + 2 + 3 + 4 + 1 + 2 + 3 + 4 + 1 + 2 + 3 + 4 +
Tabbed by Dave Vucko

===============================================================================================
8. Risk It All
===============================================================================================

F|-----------------------------------------------------------------|
C|-----------------------------------------------------------------|
G|-----------------------------------------------------------------|
C|-12--\---\---\---\---\---\---\---12--\---\---\---/---/---/---/---|
   1 + 2 + 3 + 4 + 1 + 2 + 3 + 4 + 1 + 2 + 3 + 4 + 1 + 2 + 3 + 4 +

0:07
F|-----------------------------------------------------------------|
C|-----------------------------------------------------------------|
G|-----------------------------------------------------------------|
C|-00000---0---0---0---0---0---000000000---0---0---0---0---0---0000|
   1 + 2 + 3 + 4 + 1 + 2 + 3 + 4 + 1 + 2 + 3 + 4 + 1 + 2 + 3 + 4 +

Verse 0:14
F|-------------------------------------------------------------------|
C|o-----------------------------------------------------------------o|
G|o-----------------------------------------------------------------o|
C|--000000---00-00---00-00--33335555000000---00-00---00-00--33335555-|
    1 + 2 + 3 + 4 + 1 + 2 + 3 + 4 + 1 + 2 + 3 + 4 + 1 + 2 + 3 + 4 +

Pre Chorus 0:28
F|-----------------------------------------------------------------|
C|-----------------------------------------------------------------|
G|-----------------------------------------------------------------|
C|-5b--0-4b--0-3b----0-0-0-0-0-0-0-5b--0-4b--0-3b----0-0-0-0-0-0-0-|
   1 + 2 + 3 + 4 + 1 + 2 + 3 + 4 + 1 + 2 + 3 + 4 + 1 + 2 + 3 + 4 +

F|-----------------------------------------------------------------|
C|---------------------------------------------------8-8-8-8-8-8-8-|
G|-----------------------------------------------------------------|
C|-5b--0-4b--0-3b----0-0-0-0-0-0-0-5b--0-6b--0-8b------------------|
   1 + 2 + 3 + 4 + 1 + 2 + 3 + 4 + 1 + 2 + 3 + 4 + 1 + 2 + 3 + 4 +

Chorus 0:42
F|-------------------------------------------------------------------|
C|o-----------------------------------------------------------------o|
G|o---------------1---1-1-1-1-1-1-1---------------3---3-3-3-3-3-3-3-o|
C|--0-0-0-0-0-0-0-------------------3-3-3-3-3-3-3--------------------|
    1 + 2 + 3 + 4 + 1 + 2 + 3 + 4 + 1 + 2 + 3 + 4 + 1 + 2 + 3 + 4 +

F|-----------------------------------------------------------------|
C|-----------------------------------------------------------------|
G|---------------1---1-1-1-1-1-1-1---------------3---3-3-3---3-3-3-|
C|-0-0-0-0-0-0-0-------------------3-3-3-3-3-3-3-------------------|
   1 + 2 + 3 + 4 + 1 + 2 + 3 + 4 + 1 + 2 + 3 + 4 + 1 + 2 + 3 + 4 +

F|-----------------------------------------------------------------|
C|-----------------------------------------------------------------|
G|---------------1---1-1-1-1-1-1-1-0-0-0-0-0-0-0-3---3-3-3-3-3-3-3-|
C|-0-0-0-0-0-0-0---------------------------------------------------|
   1 + 2 + 3 + 4 + 1 + 2 + 3 + 4 + 1 + 2 + 3 + 4 + 1 + 2 + 3 + 4 +

Interlude 1:11
F|-----------------------------------------------------------------|
C|-----------------------------------------------------------------|
G|-----------------------------------------------------------------|
C|-00000---0---0---0---0---0---000000000---0---0---0---0---0---0000|
   1 + 2 + 3 + 4 + 1 + 2 + 3 + 4 + 1 + 2 + 3 + 4 + 1 + 2 + 3 + 4 +

Verse 1:18
F|-------------------------------------------------------------------|
C|o-----------------------------------------------------------------o|
G|o-----------------------------------------------------------------o|
C|--000000---00-00---00-00--33335555000000---00-00---00-00--33335555-|
    1 + 2 + 3 + 4 + 1 + 2 + 3 + 4 + 1 + 2 + 3 + 4 + 1 + 2 + 3 + 4 +

Pre Chorus 1:32
F|-----------------------------------------------------------------|
C|-----------------------------------------------------------------|
G|-----------------------------------------------------------------|
C|-5b--0-4b--0-3b----0-0-0-0-0-0-0-5b--0-4b--0-3b----0-0-0-0-0-0-0-|
   1 + 2 + 3 + 4 + 1 + 2 + 3 + 4 + 1 + 2 + 3 + 4 + 1 + 2 + 3 + 4 +

F|-----------------------------------------------------------------|
C|---------------------------------------------------8-8-8-8-8-8-8-|
G|-----------------------------------------------------------------|
C|-5b--0-4b--0-3b----0-0-0-0-0-0-0-5b--0-6b--0-8b------------------|
   1 + 2 + 3 + 4 + 1 + 2 + 3 + 4 + 1 + 2 + 3 + 4 + 1 + 2 + 3 + 4 +

Chorus 1:47
F|-------------------------------------------------------------------|
C|o-----------------------------------------------------------------o|
G|o---------------1---1-1-1-1-1-1-1---------------3---3-3-3-3-3-3-3-o|
C|--0-0-0-0-0-0-0-------------------3-3-3-3-3-3-3--------------------|
    1 + 2 + 3 + 4 + 1 + 2 + 3 + 4 + 1 + 2 + 3 + 4 + 1 + 2 + 3 + 4 +

F|-----------------------------------------------------------------|
C|-----------------------------------------------------------------|
G|---------------1---1-1-1-1-1-1-1---------------3---3-3-3---3-3-3-|
C|-0-0-0-0-0-0-0-------------------3-3-3-3-3-3-3-------------------|
   1 + 2 + 3 + 4 + 1 + 2 + 3 + 4 + 1 + 2 + 3 + 4 + 1 + 2 + 3 + 4 +

F|-----------------------------------------------------------------|
C|-----------------------------------------------------------------|
G|---------------1---1-1-1-1-1-1-1-0-0-0-0-0-0-0-3---3-3-3-3-3-3-3-|
C|-0-0-0-0-0-0-0---------------------------------------------------|
   1 + 2 + 3 + 4 + 1 + 2 + 3 + 4 + 1 + 2 + 3 + 4 + 1 + 2 + 3 + 4 +

Interlude 2:15
F|-----------------------------------------------------------------|
C|-----------------------------------------------------------------|
G|-----------------------------------------------------------------|
C|-5b--0-4b--0-3b----0-0-0-0-0-0-0-5b--0-4b--0-3b----0-0-0-0-0-0-0-|
   1 + 2 + 3 + 4 + 1 + 2 + 3 + 4 + 1 + 2 + 3 + 4 + 1 + 2 + 3 + 4 +

F|-----------------------------------------------------------------|
C|---------------------------------------------------8-8-8-8-8-8-8-|
G|-----------------------------------------------------------------|
C|-5b--0-4b--0-3b----0-0-0-0-0-0-0-5b--0-6b--0-8b------------------|
   1 + 2 + 3 + 4 + 1 + 2 + 3 + 4 + 1 + 2 + 3 + 4 + 1 + 2 + 3 + 4 +

Solo 2:19
F|-----------------------------------------------------------------|
C|-----------------------------------------------------------------|
G|---------------1---1-1-1-1-1-1-1---------------3---3-3-3-3-3-3-3-|
C|-0-0-0-0-0-0-0-------------------3-3-3-3-3-3-3-------------------|
   1 + 2 + 3 + 4 + 1 + 2 + 3 + 4 + 1 + 2 + 3 + 4 + 1 + 2 + 3 + 4 +

F|---------------------------------------------------------------------------------|
C|---------------------------------------------------------------------------------|
G|---------------1---1-1-1-1-1-1-1---------------3---3-3---3-3-3-3-----------------|
C|-0-0-0-0-0-0-0-------------------3-3-3-3-3-3-3-------------------12--\---\---\---|
   1 + 2 + 3 + 4 + 1 + 2 + 3 + 4 + 1 + 2 + 3 + 4 + 1 + 2 + 3 + 4 + 1 + 2 + 3 + 4 + 

Rest

Bridge 2:58
F|---------7---------------------------------------5--5--5-5-------|
C|-12--\-----------8--8--8-8---r-----------------------------------|
G|---------------------------------8---\---------------------------|
C|-----------------------------------------------------------------|
   1 + 2 + 3 + 4 + Triplet 3 + 4 + 1 + 2 + 3 + 4 + Triplet 3 + 4 +

F|---------7---7---------------------------------------------------|
C|-12--12\---------8---8---8---8-----------------------------------|
G|---------------------------------8---8---------------------------|
C|-----------------------------------------------------------------|
   1 + 2 + 3 + 4 + 1 + 2 + 3 + 4 + 1 + 2 + 3 + 4 + 1 + 2 + 3 + 4 +

Chorus 3:12
F|-----------------------------------------------------------------|
C|-----------------------------------------------------------------|
G|---------------1---1-1-1---1-1-1---------------3---3-3-3---3-3-3-|
C|-0-0-0-0-0-0-0-------------------3-3-3-3-3-3-3-------------------|
   1 + 2 + 3 + 4 + 1 + 2 + 3 + 4 + 1 + 2 + 3 + 4 + 1 + 2 + 3 + 4 +

F|-----------------------------------------------------------------|
C|-----------------------------------------------------------------|
G|---------------1---1-1-1---1-1-1---------------3---3-3-3-3-3-3-3-|
C|-0-0-0-0-0-0-0-------------------3-3-3-3-3-3-3-------------------|
   1 + 2 + 3 + 4 + 1 + 2 + 3 + 4 + 1 + 2 + 3 + 4 + 1 + 2 + 3 + 4 +

F|-----------------------------------------------------------------|
C|-----------------------------------------------------------------|
G|---------------1---1-1-1-1-1-1-1---------------3---3-3-3-3-3-3-3-|
C|-0-0-0-0-0-0-0-------------------3-3-3-3-3-3-3-------------------|
   1 + 2 + 3 + 4 + 1 + 2 + 3 + 4 + 1 + 2 + 3 + 4 + 1 + 2 + 3 + 4 +

F|-----------------------------------------------------------------|
C|---------------3---3-2-2-3-3-------------------------------------|
G|-5-5-5-5-5-5-5---------------3-3-0-0-0-0-0-0-0-3---3-3-3-3-3-3-3-|
C|-----------------------------------------------------------------|
   1 + 2 + 3 + 4 + 1 + 2 + 3 + 4 + 1 + 2 + 3 + 4 + 1 + 2 + 3 + 4 +

Outro 3:41
F|-----------------------------------------------------------------|
C|-----------------------------------------------------------------|
G|-----------------------------------------------------------------|
C|-6-------5-------3-------0-------6-------5-------3-------0-------|
   1 + 2 + 3 + 4 + 1 + 2 + 3 + 4 + 1 + 2 + 3 + 4 + 1 + 2 + 3 + 4 +

F|---------------------------------------------------------------------------------|
C|---------------------------------------------------------------------------------|
G|---------------------------------------------------------------------------------|
C|-6-6-6-5-5-5-3-3-3-0-0-0-0-0-0-0-5-5-5-6-6-6-8-8-8---8-8-8-8-8-8-12--\---\---\---|
   1 + 2 + 3 + 4 + 1 + 2 + 3 + 4 + 1 + 2 + 3 + 4 + 1 + 2 + 3 + 4 + 1 + 2 + 3 + 4 +
Tabbed by Dave Vucko

===============================================================================================
9. Desire
===============================================================================================

Intro
F|-----------------------------------------------------------------|
C|-----------------------------------------------------------------|
G|-----------------------------------------------------------------|
C|-2-2---2---------2-2---2---------2-2---2-------002-2---2---5-5-5-|
   1 + 2 + 3 + 4 + 1 + 2 + 3 + 4 + 1 + 2 + 3 + 4 + 1 + 2 + 3 + 4 +

0:06
F|-----------------------------------------------------------------|
C|-----------------------------------------------------------------|
G|-----------------------------------------------------------------|
C|-0-2-0-2-2-5-5-5-0-2-0-2-2-7-7-7-0-2-0-2-2-5-5-5-3-3---3-3-5-5-5-|
   1 + 2 + 3 + 4 + 1 + 2 + 3 + 4 + 1 + 2 + 3 + 4 + 1 + 2 + 3 + 4 +

Verse 0:14
F|-------------------------------------------------------------------|
C|o-----------------------------------------------------------5-4---o|
G|o-------------------------------------------------3-3-3-3-2-----2-o|
C|--2-2-2-2-2-2-2-2-2-2-2-2-2-2-2-2-2-2-2-2-2-2-2-2------------------|
    1 + 2 + 3 + 4 + 1 + 2 + 3 + 4 + 1 + 2 + 3 + 4 + 1 + 2 + 3 + 4 +

Pre Chorus
F|-----------------------------------------------------------------|
C|---------------------------------------------------------7-5-----|
G|-3-3-3-3-3-3-3-3-3-3-3-3-3-7-7-7-5-5-5-5-5-5-5-5-7-7-7-7-----7-5-|
C|-----------------------------------------------------------------|
   1 + 2 + 3 + 4 + 1 + 2 + 3 + 4 + 1 + 2 + 3 + 4 + 1 + 2 + 3 + 4 +

Chorus 0:36
F|-----------------------------------------------------------------|
C|-----------------------------------------------------------------|
G|-----------------------------------------------------------------|
C|-0-2-0-2-2-5-5-5-0-2-0-2-2-7-7-7-5-5-5-5-5-5-5-5-0-0---0---0-0-0-|
   1 + 2 + 3 + 4 + 1 + 2 + 3 + 4 + 1 + 2 + 3 + 4 + 1 + 2 + 3 + 4 +

F|-----------------------------------------------------------------|
C|-----------------------------------------------------------------|
G|-----------------------------------------------------------------|
C|-0-2-0-2-2-5-5-5-0-2-0-2-2-7-7-7-5-5-5-5-5-5-5-5-3-3---3---5-5-5-|
   1 + 2 + 3 + 4 + 1 + 2 + 3 + 4 + 1 + 2 + 3 + 4 + 1 + 2 + 3 + 4 +

Interlude 0:51
F|-----------------------------------------------------------------|
C|-----------------------------------------------------------5-4---|
G|-------------------------------------------------3-3-3-3-2-----2-|
C|-2-2-2-2-2-2-2-2-2-2-2-2-2-2-2-2-2-2-2-2-2-2-2-2-----------------|
   1 + 2 + 3 + 4 + 1 + 2 + 3 + 4 + 1 + 2 + 3 + 4 + 1 + 2 + 3 + 4 +

Verse 0:58
F|-------------------------------------------------------------------|
C|o-----------------------------------------------------------5-4---o|
G|o-------------------------------------------------3-3-3-3-2-----2-o|
C|--2-2-2-2-2-2-2-2-2-2-2-2-2-2-2-2-2-2-2-2-2-2-2-2------------------|
    1 + 2 + 3 + 4 + 1 + 2 + 3 + 4 + 1 + 2 + 3 + 4 + 1 + 2 + 3 + 4 +

Pre Chorus 1:13
F|-----------------------------------------------------------------|
C|---------------------------------------------------------7-5-----|
G|-3-3-3-3-3-3-3-3-3-3-3-3-3-7-7-7-5-5-5-5-5-5-5-5-7-7-7-7-----7-5-|
C|-----------------------------------------------------------------|
   1 + 2 + 3 + 4 + 1 + 2 + 3 + 4 + 1 + 2 + 3 + 4 + 1 + 2 + 3 + 4 +

Chorus 1:20
F|-----------------------------------------------------------------|
C|-----------------------------------------------------------------|
G|-----------------------------------------------------------------|
C|-0-2-0-2-2-5-5-5-0-2-0-2-2-7-7-7-5-5-5-5-5-5-5-5-0-0---0---0-0-0-|
   1 + 2 + 3 + 4 + 1 + 2 + 3 + 4 + 1 + 2 + 3 + 4 + 1 + 2 + 3 + 4 +

F|-----------------------------------------------------------------|
C|-----------------------------------------------------------------|
G|-----------------------------------------------------------------|
C|-0-2-0-2-2-5-5-5-0-2-0-2-2-7-7-7-5-5-5-5-5-5-5-5-3-3---3---5-5-5-|
   1 + 2 + 3 + 4 + 1 + 2 + 3 + 4 + 1 + 2 + 3 + 4 + 1 + 2 + 3 + 4 +

Interlude 1:35
F|-----------------------------------------------------------------|
C|-----------------------------------------------------------------|
G|-----------------------------------------------------------------|
C|-2-2---2---------2-2---2---------2-2---2-------002-2---2-2-5-5-5-|
   1 + 2 + 3 + 4 + 1 + 2 + 3 + 4 + 1 + 2 + 3 + 4 + 1 + 2 + 3 + 4 +

Solo 1:43
F|-----------------------------------------------------------------|
C|-----------------------------------------------------------------|
G|-----------------------------------------------------------------|
C|-0-2-0-2-2-5-5-5-0-2-0-2-2-7-7-7-5-5-5-5-5-5-5-5-0-0---0---0-0-0-|
   1 + 2 + 3 + 4 + 1 + 2 + 3 + 4 + 1 + 2 + 3 + 4 + 1 + 2 + 3 + 4 +

F|-----------------------------------------------------------------|
C|-----------------------------------------------------------------|
G|-----------------------------------------------------------------|
C|-0-2-0-2-2-5-5-5-0-2-0-2-2-7-7-7-5-5-5-5-5-5-5-5-3-3-3-3-3-5-5-5-|
   1 + 2 + 3 + 4 + 1 + 2 + 3 + 4 + 1 + 2 + 3 + 4 + 1 + 2 + 3 + 4 +

Pre Chorus 1:57
F|---------------------------------------------------------------------------------|
C|---------------------------------------------------------7-5---------------------|
G|-3-3-3-3-3-3-3-3-3-3-3-3-3-7-7-7-5-5-5-5-5-5-5-5-7-7-7-7-----7-5-----------------|
C|-----------------------------------------------------------------2---------------|
   1 + 2 + 3 + 4 + 1 + 2 + 3 + 4 + 1 + 2 + 3 + 4 + 1 + 2 + 3 + 4 + 1 + 2 + 3 + 4 +

Rest

Chorus 2:12
F|-----------------------------------------------------------------|
C|-----------------------------------------------------------------|
G|-----------------------------------------------------------------|
C|-0-2-0-2-2-5-5-5-0-2-0-2-2-7-7-7-5-5-5-5-5-5-5-5-0-0---0---0-0-0-|
   1 + 2 + 3 + 4 + 1 + 2 + 3 + 4 + 1 + 2 + 3 + 4 + 1 + 2 + 3 + 4 +

F|-----------------------------------------------------------------|
C|-----------------------------------------------------------------|
G|-----------------------------------------------------------------|
C|-0-2-0-2-2-5-5-5-0-2-0-2-2-7-7-7-5-5-5-5-5-5-5-5-3-3---3---5-5-5-|
   1 + 2 + 3 + 4 + 1 + 2 + 3 + 4 + 1 + 2 + 3 + 4 + 1 + 2 + 3 + 4 +

Outro 2:26
F|-----------------------------------------------------------------|
C|-----------------------------------------------------------------|
G|-----------------------------------------------------------------|
C|-0-2-0-2---5-5---0-2-0-2---7-7---5-5-5-5-5-5-5-5-0-0---0---0-0-0-|
   1 + 2 + 3 + 4 + 1 + 2 + 3 + 4 + 1 + 2 + 3 + 4 + 1 + 2 + 3 + 4 +

F|-----------------------------------------------------------------|
C|-----------------------------------------------------------------|
G|-----------------------------------------------------------------|
C|-0-2-0-2---5-5---0-2-0-2---7-7---5-5-5-5-5-5-5-5-3-3---3---5-5-5-|
   1 + 2 + 3 + 4 + 1 + 2 + 3 + 4 + 1 + 2 + 3 + 4 + 1 + 2 + 3 + 4 +
Tabbed By Dave Vucko

===============================================================================================
10. One For The Money
===============================================================================================

F|-----------------------------------------------------------------|
C|-----------------------------------------------------------------|
G|-----------------------------------------------------------------|
C|-0-0-------------0-0-------------0-0-------------0-0-----0-0-----|
   1 + 2 + 3 + 4 + 1 + 2 + 3 + 4 + 1 + 2 + 3 + 4 + 1 + 2 + 3 + 4 +

F|-----------------------------------------------------------------|
C|-----------------------------------------------------------------|
G|-------------------------------------------------1-1-1-1-1-0-1-0-|
C|-0-0-------------0-0-------------0-0-----------------------------|
   1 + 2 + 3 + 4 + 1 + 2 + 3 + 4 + 1 + 2 + 3 + 4 + 1 + 2 + 3 + 4 +

F|-------------------------------------------------------------------|
C|o-----------------------------------------3-2-0-2---------2-3-2-3-o|
G|o-----------------5-5-\---5-\---/-1-1-------------0-0-------------o|
C|--0-0-----12--\----------------------------------------------------|
    1 + 2 + 3 + 4 + 1 + 2 + 3 + 4 + 1 + 2 + 3 + 4 + 1 + 2 + 3 + 4 +

Verse 0:24
F|-----------------------------------------------------------------|
C|-----------------------------------------3-2-0-2---------3-2-3-2-|
G|-5-5-\---5-\---------------------1-1-------------0-0-------------|
C|-----------------0-0-----0---------------------------------------|
   1 + 2 + 3 + 4 + 1 + 2 + 3 + 4 + 1 + 2 + 3 + 4 + 1 + 2 + 3 + 4 +

F|-----------------------------------------------------------------|
C|-----------------------------------------3-2-0-2---------2-3-2-3-|
G|-5-5-\---5-\---------------------1-1-------------0-0-------------|
C|-----------------0-0-----0---------------------------------------|
   1 + 2 + 3 + 4 + 1 + 2 + 3 + 4 + 1 + 2 + 3 + 4 + 1 + 2 + 3 + 4 +

F|-----------------------------------------------------------------|
C|-----------------------------------------3-2-0-2---------3-2-3-2-|
G|---------------------------------1-1-------------0-0-------------|
C|-0-0-----12--\---0-0-----/---/-----------------------------------|
   1 + 2 + 3 + 4 + 1 + 2 + 3 + 4 + 1 + 2 + 3 + 4 + 1 + 2 + 3 + 4 +

F|-----------------------------------------------------------------|
C|-----------------------------------------3-2-0-2-----------------|
G|---------------------------------1-1-------------0---------------|
C|-0-0-----12--\---0-0-----/---/-----------------------------------|
   1 + 2 + 3 + 4 + 1 + 2 + 3 + 4 + 1 + 2 + 3 + 4 + 1 + 2 + 3 + 4 +

Chorus 0:44
F|------------------------------------------------------------------|
C|o-----------------------------------------------------------------|
G|o---------------5---5-5---5-3-----1---1---1-----1-----------------|
C|--0---0---0-----------------------------------------5-5---5-7---3-|
    1 + 2 + 3 + 4 + 1 + 2 + 3 + 4 + 1 + 2 + 3 + 4 + 1 + 2 + 3 + 4 +

F|-----------------------------------------3------------------------|
C|-----------------------------------------------------------------o|
G|---------5-------5-5-5---5-3-----1---1---------1-1---------------o|
C|-0---0---------0-----------------------------------5-5-5-5-7-7-7--|
   1 + 2 + 3 + 4 + 1 + 2 + 3 + 4 + 1 + 2 + 3 + 4 + 1 + 2 + 3 + 4 +

Interlude 1:06
F|-----------------------------------------------------------------|
C|-----------------------------------------------------------------|
G|---------5-------------------------------5---------5-6-----5-6-6-|
C|-0---0-------------1---1---1-3---0---0---------------------------|
   1 + 2 + 3 + 4 + 1 + 2 + 3 + 4 + 1 + 2 + 3 + 4 + 1 + 2 + 3 + 4 +

Verse 1:11
F|-----------------------------------------------------------------|
C|-----------------------------------------3---------------2-3-----|
G|-------------------------5-------1---1---------1-0---0-------0---|
C|-0---0---12--\-0-0-0-0-0-----------------------------------------|
   1 + 2 + 3 + 4 + 1 + 2 + 3 + 4 + 1 + 2 + 3 + 4 + 1 + 2 + 3 + 4 +

F|-----------------------------------------------------------------|
C|-----------------------------------------3-/-7-------------------|
G|-------------------------5-------1---1-----------0---0-----------|
C|-0---0---12--\---0-0-0-------------------------------------------|
   1 + 2 + 3 + 4 + 1 + 2 + 3 + 4 + 1 + 2 + 3 + 4 + 1 + 2 + 3 + 4 +

F|-----------------------------------------------------------------|
C|-----------------------------------------3-2-0-2---------3-2-3-2-|
G|---------------------------------1-1-------------0-0-------------|
C|-0-0-----12--\---0-0-----/---/-----------------------------------|
   1 + 2 + 3 + 4 + 1 + 2 + 3 + 4 + 1 + 2 + 3 + 4 + 1 + 2 + 3 + 4 +

F|-----------------------------------------------------------------|
C|-----------------------------------------3-2-0-2-------------9-\-|
G|---------------------------------1-1-------------0---------------|
C|-0-0-----12--\---0-0-----/---/-----------------------------------|
   1 + 2 + 3 + 4 + 1 + 2 + 3 + 4 + 1 + 2 + 3 + 4 + 1 + 2 + 3 + 4 +

Chorus 1:32
F|------------------------------------------------------------------|
C|o-----------------------------------------------------------------|
G|o---------------5---5-5---5-3-----1---1---1-----1-----------------|
C|--0---0---0-----------------------------------------5-5---5-7---3-|
    1 + 2 + 3 + 4 + 1 + 2 + 3 + 4 + 1 + 2 + 3 + 4 + 1 + 2 + 3 + 4 +

F|-----------------------------------------3------------------------|
C|-----------------------------------------------------------------o|
G|---------5-------5-5-5---5-3-----1---1---------1-1---------------o|
C|-0---0---------0-----------------------------------5-5-5-5-7-7-7--|
   1 + 2 + 3 + 4 + 1 + 2 + 3 + 4 + 1 + 2 + 3 + 4 + 1 + 2 + 3 + 4 +

Interlude 1:53
F|-----------------------------------------------------------------|
C|-----------------------------------------------------------------|
G|---------5-------------------------------5-----------------------|
C|-0---0-------------1---1---1-3---0---0-------------0-1-----------|
   1 + 2 + 3 + 4 + 1 + 2 + 3 + 4 + 1 + 2 + 3 + 4 + 1 + 2 + 3 + 4 +

F|-----------------------------------------------------------------|
C|-----------------------------------------------------------------|
G|---------5-------------------------------5-----------------------|
C|-0---0-------------1---1---1-3---0---0---------------------------|
   1 + 2 + 3 + 4 + 1 + 2 + 3 + 4 + 1 + 2 + 3 + 4 + 1 + 2 + 3 + 4 +

Solo 2:05
F|-------------------------------------------------------------------|
C|o-3---------------------------3---3-------------------------------o|
G|o-----5---3h5-3h5---------------------5---3h5-3h5---5-6-----5-6---o|
C|--------------------0---0------------------------------------------|
    1 + 2 + 3 + 4 + 1 + 2 + 3 + 4 + 1 + 2 + 3 + 4 + 1 + 2 + 3 + 4 +

F|---------------------------------|
C|---------------------------------|
G|---------------------------------|
C|-0---0---0---0---1-1-1-1-3-3-3-3-|
   1 + 2 + 3 + 4 + 1 + 2 + 3 + 4 +

rest

Chorus 2:28
F|-----------------------------------------------------------------|
C|-----------------------------------------------------------------|
G|---------------5---5-5---5-3-----1---1---1-----1-----------------|
C|-0---0---0-----------------------------------------5-5---5-7---3-|
   1 + 2 + 3 + 4 + 1 + 2 + 3 + 4 + 1 + 2 + 3 + 4 + 1 + 2 + 3 + 4 +

F|-----------------------------------------------------------------|
C|-----------------------------------------------------------------|
G|---------5-------5-5-5---5-3-----1-1-1-1-1-1-1-1-----------------|
C|-0---0---------0---------------------------------5-5-5-5-7-7-7-7-|
   1 + 2 + 3 + 4 + 1 + 2 + 3 + 4 + 1 + 2 + 3 + 4 + 1 + 2 + 3 + 4 +

Interlude
F|-----------------------------------------------------------------|
C|-----------------------------------------------------------------|
G|---------5-------------------------------5-----------------------|
C|-0---0-------------1---1---1-3---0---0-------------0-1-----0-1---|
   1 + 2 + 3 + 4 + 1 + 2 + 3 + 4 + 1 + 2 + 3 + 4 + 1 + 2 + 3 + 4 +

F|-----------------------------------------------------------------|
C|-----------------------------------------------------------------|
G|---------5-------------------------------5---5-5-----------------|
C|-0---0-------------1---1---1-3---0---0---------------------------|
   1 + 2 + 3 + 4 + 1 + 2 + 3 + 4 + 1 + 2 + 3 + 4 + 1 + 2 + 3 + 4 +

Outro 2:50
F|-------------------------------------------------------------------|
C|o-----------------------------------------------------------------o|
F|o---------3h5-3h5-------------------------3h5-3h5-----------------o|
C|--3---0-------------0---0-----3---3---0-------------0-1-----0-1----|
    1 + 2 + 3 + 4 + 1 + 2 + 3 + 4 + 1 + 2 + 3 + 4 + 1 + 2 + 3 + 4 +

F|-------------------------------------------------------------------|
C|o-3---------------------------3---3-------------------------------o|
F|o-----5---3h5-3h5---------------------5---3h5-3h5---5-6-----5-6---o|
C|--------------------0---0------------------------------------------|
    1 + 2 + 3 + 4 + 1 + 2 + 3 + 4 + 1 + 2 + 3 + 4 + 1 + 2 + 3 + 4 +

F|---------------------------------|
C|---------------------------------|
G|---------------------------------|
C|-0---0---0---0---1-1-1-1-3-3-3-3-|
   1 + 2 + 3 + 4 + 1 + 2 + 3 + 4 +

Tabbed by Dave Vucko

===============================================================================================
11. Fire It Up
===============================================================================================

Intro 0:12
F|---------------------------------|
C|---------------------------------|
G|---------------------------------|
C|-0-0-0-0-0-0-0-0-000000000-00-000|
   1 + 2 + 3 + 4 + 1 + 2 + 3 + 4 +

F|-----------------------------------------------------------------|
C|-----------------------------------------------------------------|
G|-5-----------------------3--3--3-5-----------------------3-------|
C|---0-0-0-6-06--5-5-0-3-0---0--0----0-0-0-6-06--5-5-0-3-0---01-01-|
   1 + 2 + 3 + 4 + 1 + 2 + 3 + 4 + 1 + 2 + 3 + 4 + 1 + 2 + 3 + 4 +

Verse 0:23
F|-------------------------------------------------------------------|
C|o-----------------------------------------------------------------o|
G|o-5-----------------------3--3--3-5-----------------------3-------o|
C|----0-----6-06--5-5-\-------0--0----0-----6-06--5-5-\-------01-01--|
    1 + 2 + 3 + 4 + 1 + 2 + 3 + 4 + 1 + 2 + 3 + 4 + 1 + 2 + 3 + 4 +

Pre Chorus 0:37
F|-----------------------------------------------------------------|
C|-3p0-------------3p0-3h5---3h5---3p0-------------3h5-3h6---3h6---|
G|-----------------------------------------------------------------|
C|-----------------------------------------------------------------|
   1 e + a 2 e + a 3 e + a 4 e + a 1 e + a 2 e + a 3 e + a 4 e + a

F|-----------------------------------------------------------------|
C|-3p0-------------3p0-3h5---3h5---3p0-------------5-6-5-3-0-3-0---|
G|---------------------------------------------------------------3-|
C|-----------------------------------------------------------------|
   1 e + a 2 e + a 3 e + a 4 e + a 1 e + a 2 e + a 3 e + a 4 e + a

F|-----------------------------------------------------------------|
C|-3p0-------------3p0-3h5---3h5---3p0-------------3h5-3h6---3h6---|
G|-----------------------------------------------------------------|
C|-----------------------------------------------------------------|
   1 e + a 2 e + a 3 e + a 4 e + a 1 e + a 2 e + a 3 e + a 4 e + a

F|-----------------------------------------------------------------|
C|-3p0-------------3p0-3h5---3h5-----------------------------------|
G|-----------------------------------------------------------------|
C|-------------------------------------5---5---5---5---5---5---5---|
   1 e + a 2 e + a 3 e + a 4 e + a 1 e + a 2 e + a 3 e + a 4 e + a

Chorus 0:50
F|-------------------------------------------------------------------|
C|o-----------------------------------------------------------------o|
G|o-----------------------------0-0---------------------------------o|
C|--0-0-0-0-0-0-2-2-3-3-3-3-3-3-----5-5-5-5-5-5-5-5-3-3-3-2-2-2-2-2--|
    1 + 2 + 3 + 4 + 1 + 2 + 3 + 4 + 1 + 2 + 3 + 4 + 1 + 2 + 3 + 4 +

Interlude 1:06
F|-----------------------------------------------------------------|
C|-----------------------------------------------------------------|
G|-5-----------------------3--3--3-5-----------------------3-------|
C|---0-0-0-6-06--5-5-0-3-0---0--0----0-0-0-6-06--5-5-0-3-0---01-01-|
   1 + 2 + 3 + 4 + 1 + 2 + 3 + 4 + 1 + 2 + 3 + 4 + 1 + 2 + 3 + 4 +

Verse 1:13
F|-------------------------------------------------------------------|
C|o-----------------------------------------------------------------o|
G|o-5-----------------------3--3--3-5-----------------------3-------o|
C|----0-----6-06--5-5-\-------0--0----0-----6-06--5-5-\-------01-01--|
    1 + 2 + 3 + 4 + 1 + 2 + 3 + 4 + 1 + 2 + 3 + 4 + 1 + 2 + 3 + 4 +

Pre Chorus 1:27
F|-----------------------------------------------------------------|
C|-3p0-------------3p0-3h5---3h5---3p0-------------3h5-3h6---3h6---|
G|-----------------------------------------------------------------|
C|-----------------------------------------------------------------|
   1 e + a 2 e + a 3 e + a 4 e + a 1 e + a 2 e + a 3 e + a 4 e + a

F|-----------------------------------------------------------------|
C|-3p0-------------3p0-3h5---3h5---3p0-------------5-6-5-3-0-3-0---|
G|---------------------------------------------------------------3-|
C|-----------------------------------------------------------------|
   1 e + a 2 e + a 3 e + a 4 e + a 1 e + a 2 e + a 3 e + a 4 e + a

F|-----------------------------------------------------------------|
C|-3p0-------------3p0-3h5---3h5---3p0-------------3h5-3h6---3h6---|
G|-----------------------------------------------------------------|
C|-----------------------------------------------------------------|
   1 e + a 2 e + a 3 e + a 4 e + a 1 e + a 2 e + a 3 e + a 4 e + a

F|-----------------------------------------------------------------|
C|-3p0-------------3p0-3h5---3h5-----------------------------------|
G|-----------------------------------------------------------------|
C|-------------------------------------5---5---5---5---5---5---5---|
   1 e + a 2 e + a 3 e + a 4 e + a 1 e + a 2 e + a 3 e + a 4 e + a

Chorus 1:40
F|-------------------------------------------------------------------|
C|o-----------------------------------------------------------------o|
G|o-----------------------------0-0---------------------------------o|
C|--0-0-0-0-0-0-2-2-3-3-3-3-3-3-----5-5-5-5-5-5-5-5-3-3-3-2-2-2-2-2--|
    1 + 2 + 3 + 4 + 1 + 2 + 3 + 4 + 1 + 2 + 3 + 4 + 1 + 2 + 3 + 4 +

Interlude 1:55
F|-----------------------------------------------------------------|
C|-----------------------------------------------------------------|
G|-----------------------------------------------------------------|
C|-0---------------------------------------------------------------|
   1 + 2 + 3 + 4 + 1 + 2 + 3 + 4 + 1 + 2 + 3 + 4 + 1 + 2 + 3 + 4 +

F|-----------------------------------------------------------------|
C|-----------------------------------------------------------------|
G|-----------------------------------------------------------------|
C|-------------------------/---/---r-----------------------3-0-----|
   1 + 2 + 3 + 4 + 1 + 2 + 3 + 4 + 1 + 2 + 3 + 4 + 1 + 2 + 3 + 4 +

Bridge 2:09
F|-----------------------------------------------------------------|
C|-----------------------------3-----------------------------------|
G|-------------------------3-5---3-------------------------3-5-----|
C|-000-000---000-000-0000----------000-000---000-000-0000----------|
   1 + 2 + 3 + 4 + 1 + 2 + 3 + 4 + 1 + 2 + 3 + 4 + 1 + 2 + 3 + 4 +

F|-----------------------------------------------------------------|
C|-----------------------------3-----------------------------------|
G|-------------------------3-5---3-------------------------3-5---3-|
C|-000-000---000-000-0000----------000-000---000-000-0000------3---|
   1 + 2 + 3 + 4 + 1 + 2 + 3 + 4 + 1 + 2 + 3 + 4 + 1 + 2 + 3 + 4 +

Solo 2:24
F|-----------------------------------------------------------------|
C|-----------------------------------------------------------------|
G|-5-----------------------3--3--3-5-----------------------3-------|
C|---0-----6-06--5-5-\-------0--0----0-----6-06--5-5-\-------01-01-|
   1 + 2 + 3 + 4 + 1 + 2 + 3 + 4 + 1 + 2 + 3 + 4 + 1 + 2 + 3 + 4 +

F|-----------------------------------------------------------------|
C|-----------------------------------------------------------------|
G|-5-----------------------3--3--3-5-----------------------3-------|
C|---0-----6-06--5-5-\-------0--0----0-----6-06--5-5-\--------1--1-|
   1 + 2 + 3 + 4 + 1 + 2 + 3 + 4 + 1 + 2 + 3 + 4 + 1 + 2 + 3 + 4 +

2:38
F|-------------------------------------------------|---------------------------------|
C|-------------------------------------------------|-----------------5-6-5-3-0-3-0---|
G|-5-----------------------3--3--3-5---------------|-------------------------------3-|
C|---0-----6-06--5-5-\-------0--0----0-----6-06--5-|-5-\-----------------------------|
   1 + 2 + 3 + 4 + 1 + 2 + 3 + 4 + 1 + 2 + 3 + 4 +   1 e + a 2 e + a 3 e + a 4 e + a

F|-----------------------------------------------------------------|
C|-----------------------------------------------------------------|
G|-5-----------------------3--3--3-5-------------------------------|
C|---0-----6-06--5-5-\--\----0--0----0-----6-06--5---5-5-5-5-5-5-5-|
   1 + 2 + 3 + 4 + 1 + 2 + 3 + 4 + 1 + 2 + 3 + 4 + 1 + 2 + 3 + 4 +

Chorus 2:52
F|-------------------------------------------------------------------|
C|o-----------------------------------------------------------------o|
G|o-----------------------------0-0---------------------------------o|
C|--0-0-0-0-0-0-2-2-3-3-3-3-3-3-----5-5-5-5-5-5-5-5-3-3-3-2-2-2-2-2--|
    1 + 2 + 3 + 4 + 1 + 2 + 3 + 4 + 1 + 2 + 3 + 4 + 1 + 2 + 3 + 4 +

F|-----------------------------------------------------------------|
C|-----------------------------------------------------------------|
G|-----------------------------0-0---------------------------------|
C|-0-0-0-0-0-0-2-2-3-3-3-3-3-3-----5-5-5-5-5-5-5---3-3-3-2-2-2-2---|
   1 + 2 + 3 + 4 + 1 + 2 + 3 + 4 + 1 + 2 + 3 + 4 + 1 + 2 + 3 + 4 +

F|-----------------------------------------------------------------|
C|-----------------------------------------------------------------|
G|-----------------------------0-0---------------------------------|
C|-0-0-0-0-0-0-2-2-3-3-3-3-3-3-----5-5-5-5-5-5-5-5-3-3-3-2-2-2-2-2-|
   1 + 2 + 3 + 4 + 1 + 2 + 3 + 4 + 1 + 2 + 3 + 4 + 1 + 2 + 3 + 4 +

Outro 3:20
F|-----------------------------------------------------------------|
C|-----------------------------3-----------------------------------|
G|-------------------------3-5---3-------------------------3-5-----|
C|-000-000---000-000-0000----------000-000---000-000-0000----------|
   1 + 2 + 3 + 4 + 1 + 2 + 3 + 4 + 1 + 2 + 3 + 4 + 1 + 2 + 3 + 4 +

F|-----------------------------------------------------------------|
C|-----------------------------3-----------------------------------|
G|-------------------------3-5---3-------------------------3-5-----|
C|-000-000---000-000-0000----------000-000---000-000-0000------3---|
   1 + 2 + 3 + 4 + 1 + 2 + 3 + 4 + 1 + 2 + 3 + 4 + 1 + 2 + 3 + 4 +

F|-----------------------------------------------------------------|
C|-----------------------------------------------------------------|
G|-----------------------------------------------------------------|
C|-0---------------------------------------------------------------|
   1 + 2 + 3 + 4 + 1 + 2 + 3 + 4 + 1 + 2 + 3 + 4 + 1 + 2 + 3 + 4 +

Tabbed by Jack Mills & Dave Vucko

===============================================================================================
12. I Alone
===============================================================================================

Intro
F|-----------------------------------------------------------------|
C|-----------------------------------------------------------------|
G|-3-3-3---3-3-3-2-----------------5-5-5---5-5-5-7-----------------|
C|-----------------------------------------------------------------|
   1 + 2 + 3 + 4 + 1 + 2 + 3 + 4 + 1 + 2 + 3 + 4 + 1 + 2 + 3 + 4 +

F|-----------------------------------------------------------------|
C|-----------------------------------------------------------------|
G|-3-3-3---3-3-3-2---2---2---2-2---5-5-5---5-5-5-7---7---7-7-7-7-7-|
C|-----------------------------------------------------------------|
   1 + 2 + 3 + 4 + 1 + 2 + 3 + 4 + 1 + 2 + 3 + 4 + 1 + 2 + 3 + 4 +

F|-----------------------------------------------------------------|
C|-----------------------------------------------------------------|
G|-3-3-3---3-3-3-2---2---2---2-2-2-5-5-5---5-5-5-7---7---7---7-7-7-|
C|-----------------------------------------------------------------|
   1 + 2 + 3 + 4 + 1 + 2 + 3 + 4 + 1 + 2 + 3 + 4 + 1 + 2 + 3 + 4 +

F|-----------------------------------------------------------------|
C|-----------------------------------------------------------------|
G|-3-3-3---3-3-3-2---2---2---2-2-2-5-5-5---5-5-5-------------------|
C|-----------------------------------------------2-----------------|
   1 + 2 + 3 + 4 + 1 + 2 + 3 + 4 + 1 + 2 + 3 + 4 + 1 + 2 + 3 + 4 +

Verse 0:21
F|-----------------------------------------------------------------|
C|-----------------------------------------------------------------|
G|-7-7-5-\-------------------------------------------------------5-|
C|-------------------------------0-2-2-----------------------------|
   1 + 2 + 3 + 4 + 1 + 2 + 3 + 4 + 1 + 2 + 3 + 4 + 1 + 2 + 3 + 4 +

F|-----------------------------------------------------------------|
C|-------------------------------------------------------------0---|
G|-3-3-3-\-----------------------2-3-3-----------2-3-3---2-3-3-----|
C|-----------------------------------------------------------------|
   1 + 2 + 3 + 4 + 1 + 2 + 3 + 4 + 1 + 2 + 3 + 4 + 1 + 2 + 3 + 4 +

F|-----------------------------------------------------------------|
C|-2-2-2-2-2-2-2-2-2-2-2-2-2-2-2-0-2-2-2-2-2-2-2-2-2-2-2-4---5-----|
G|---------------------------------------------------------------3-|
C|-----------------------------------------------------------------|
   1 + 2 + 3 + 4 + 1 + 2 + 3 + 4 + 1 + 2 + 3 + 4 + 1 + 2 + 3 + 4 +

F|-----------------------------------------------------------------|
C|---------------------------------------------------------5-4-2---|
G|-3-3-3-3-3-3-3-3-3-3-3-3-3-3-3-3-3-3-3-3-3-3-3-3-3-3-3-3---------|
C|-----------------------------------------------------------------|
   1 + 2 + 3 + 4 + 1 + 2 + 3 + 4 + 1 + 2 + 3 + 4 + 1 + 2 + 3 + 4 +

Pre Chorus 0:43
F|-----------------------------------------------------------------|
C|-----------------------------------------------7-----------------|
G|-5---5---5-----5-5---5---5-----5-5---5---5-------5-\-------------|
C|-----------------------------------------------------------------|
   1 + 2 + 3 + 4 + 1 + 2 + 3 + 4 + 1 + 2 + 3 + 4 + 1 + 2 + 3 + 4 +

Chorus 0:49
F|-----------------------------------------------------------------|
C|-----------------------------------------------------------------|
G|-----------------------------------------------------------------|
C|-5-5-5---5-5-5-5---5-5---5-5-5---4-4-4---4-4-4-4---4-4---4-4-4-0-|
   1 + 2 + 3 + 4 + 1 + 2 + 3 + 4 + 1 + 2 + 3 + 4 + 1 + 2 + 3 + 4 +

F|-----------------------------------------------------------------|
C|-----------------------------------------------------------------|
G|---------------------------------3-3-3---3-3-3-3-5-5-5-5-5-5-5-5-|
C|-2-2-2---2-2-2-2---2-2---2-2-2-----------------------------------|
   1 + 2 + 3 + 4 + 1 + 2 + 3 + 4 + 1 + 2 + 3 + 4 + 1 + 2 + 3 + 4 +

F|-----------------------------------------------------------------|
C|-----------------------------------------------------------------|
G|-----------------------------------------------------------------|
C|-5-5-5---5-5-5-5---5-5---5-5-5-5-4-4-4---4-4-4-4---4-4---4-4-4-4-|
   1 + 2 + 3 + 4 + 1 + 2 + 3 + 4 + 1 + 2 + 3 + 4 + 1 + 2 + 3 + 4 +

F|---------------------------------------------------------7-------|
C|-----------------------------------------------------------------|
G|---------------------------------3-3-3---3-3-3-3-5-5-5-5---5-5-5-|
C|-2-2-2---2-2-2-2---2-2---2-2-2-2---------------------------------|
   1 + 2 + 3 + 4 + 1 + 2 + 3 + 4 + 1 + 2 + 3 + 4 + 1 + 2 + 3 + 4 +

Interlude 1:10
F|-----------------------------------------------------------------|
C|-----------------------------------------------------------------|
G|-3-3-3---3-3-3-2---2---2---2-2-2---------------------------------|
C|---------------------------------0-0-0---0-0-0-2---2---2---2-2-2-|
   1 + 2 + 3 + 4 + 1 + 2 + 3 + 4 + 1 + 2 + 3 + 4 + 1 + 2 + 3 + 4 +

F|-----------------------------------------------------------------|
C|-----------------------------------------------------------------|
G|-3-3-3---3-3-3-2---2---2---2-2-2---------------------------------|
C|---------------------------------0-0-0---0-0-0-2-----------------|
   1 + 2 + 3 + 4 + 1 + 2 + 3 + 4 + 1 + 2 + 3 + 4 + 1 + 2 + 3 + 4 +

Verse 1:22
F|-----------------------------------------------------------------|
C|-----------------------------------------------------------------|
G|-7-7-5-\-------------------------------------------------------5-|
C|-------------------------------0-2-2-----------------------------|
   1 + 2 + 3 + 4 + 1 + 2 + 3 + 4 + 1 + 2 + 3 + 4 + 1 + 2 + 3 + 4 +

F|-----------------------------------------------------------------|
C|---------------------------------------------------5-4---7-5-4---|
G|-3-3-3-\-----------------------2-3-3-------------------5-------5-|
C|-----------------------------------------------------------------|
   1 + 2 + 3 + 4 + 1 + 2 + 3 + 4 + 1 + 2 + 3 + 4 + 1 + 2 + 3 + 4 +

F|-----------------------------------------------------------------|
C|-2-2-2-2-2---2-2-2-2-2-2-2-2-2-0-2-2-2-2-2-2-2-2-2-2-2-4-4-5-5---|
G|---------------------------------------------------------------3-|
C|-----------------------------------------------------------------|
   1 + 2 + 3 + 4 + 1 + 2 + 3 + 4 + 1 + 2 + 3 + 4 + 1 + 2 + 3 + 4 +

F|-----------------------------------------------------------------|
C|---------------------------------------------------------5---4---|
G|-3-3-3-3-3-3-3-3-3-3-3-3-3-3-3-3-3-3-3-3-3-3-3-3-3-3-3-3---------|
C|-----------------------------------------------------------------|
   1 + 2 + 3 + 4 + 1 + 2 + 3 + 4 + 1 + 2 + 3 + 4 + 1 + 2 + 3 + 4 +

Pre Chorus 1:44
F|---------------7-------------------------------------------------|
C|---------------------------------------------7-------------------|
G|-5-5-5---5-----------5---5-------5-5-5-5-5-----5-\---------------|
C|-----------------------------------------------------------------|
   1 + 2 + 3 + 4 + 1 + 2 + 3 + 4 + 1 + 2 + 3 + 4 + 1 + 2 + 3 + 4 +

Chorus 1:49
F|-----------------------------------------------------------------|
C|-----------------------------------------------------------------|
G|-----------------------------------------------------------------|
C|-5-5-5---5-5-5-5---5-5---5-5-5---4-4-4---4-4-4-4---4-4---4-4-4---|
   1 + 2 + 3 + 4 + 1 + 2 + 3 + 4 + 1 + 2 + 3 + 4 + 1 + 2 + 3 + 4 +

F|-----------------------------------------------------------------|
C|-----------------------------------------------------------------|
G|---------------------------------3-3-3---3-3-3-3-5-5-5-5-5-5-5-5-|
C|-2-2-2---2-2-2-2---2-2---2-2-2-----------------------------------|
   1 + 2 + 3 + 4 + 1 + 2 + 3 + 4 + 1 + 2 + 3 + 4 + 1 + 2 + 3 + 4 +

F|-----------------------------------------------------------------|
C|-----------------------------------------------------------------|
G|-----------------------------------------------------------------|
C|-5-5-5---5-5-5-5---5-5---5-5-5-5-4-4-4---4-4-4-4---4-4---4-4-4-4-|
   1 + 2 + 3 + 4 + 1 + 2 + 3 + 4 + 1 + 2 + 3 + 4 + 1 + 2 + 3 + 4 +

F|-----------------------------------------------------------------|
C|-----------------------------------------------------------------|
G|---------------------------------3-3-3-3-3-3-3-3-5-5-5-5-5-5-5-5-|
C|-2-2-2---2-2-2-2---2-2---2-2-2-----------------------------------|
   1 + 2 + 3 + 4 + 1 + 2 + 3 + 4 + 1 + 2 + 3 + 4 + 1 + 2 + 3 + 4 +

Bridge 2:12
F|-----------------------------------------------------------------|
C|-----------------------------------------------------------------|
G|-----------------------------------------------------------------|
C|-2---------------2---2---2---2-/-7---7-----7---7-5-----5-5-------|
   1 + 2 + 3 + 4 + 1 + 2 + 3 + 4 + 1 + 2 + 3 + 4 + 1 + 2 + 3 + 4 +

F|-----------------------------------------------------------------|
C|-----------------------------------------------------------------|
G|---------------------------------------------------------------0-|
C|-4---4-----4---4-4---------------5---5-----5---5-4-------4-4-5---|
   1 + 2 + 3 + 4 + 1 + 2 + 3 + 4 + 1 + 2 + 3 + 4 + 1 + 2 + 3 + 4 +

F|-----------------------------------------------------------------|
C|-----------------------------------------------------------------|
G|-----------------------------------------------------------------|
C|-2---2-----2---2-2-------------/-7---7-----7---7-5-5-5-5-5---5---|
   1 + 2 + 3 + 4 + 1 + 2 + 3 + 4 + 1 + 2 + 3 + 4 + 1 + 2 + 3 + 4 +

F|-----------------------------------------------------------------|
C|-----------------------------------------------------------------|
G|---------------------------------------------------------------0-|
C|-4---4-----4---4-4---------------5---5-----5---5-4-4-4-4-4-4-5---|
   1 + 2 + 3 + 4 + 1 + 2 + 3 + 4 + 1 + 2 + 3 + 4 + 1 + 2 + 3 + 4 +

Rest

Solo 2:39
F|-----------------------------------------------------------------|
C|-----------------------------------------------------------------|
G|-----------------------------------------------------------------|
C|-5-5-5---5-5-5-5---5-5---5-5-5---4-4-4---4-4-4-4---4-4---4-4-4---|
   1 + 2 + 3 + 4 + 1 + 2 + 3 + 4 + 1 + 2 + 3 + 4 + 1 + 2 + 3 + 4 +

F|-----------------------------------------------------------------|
C|-----------------------------------------------------------------|
G|---------------------------------3-3-3-3-3-3-3-3-5-5-5-5-5-5-5-5-|
C|-2-2-2---2-2-2-2---2-2---2-2-2-----------------------------------|
   1 + 2 + 3 + 4 + 1 + 2 + 3 + 4 + 1 + 2 + 3 + 4 + 1 + 2 + 3 + 4 +

Chorus 2:50
F|-----------------------------------------------------------------|
C|-----------------------------------------------------------------|
G|-----------------------------------------------------------------|
C|-5-5-5---5-5-5-5---5-5---5-5-5---4-4-4---4-4-4-4---4-4---4-4-4-0-|
   1 + 2 + 3 + 4 + 1 + 2 + 3 + 4 + 1 + 2 + 3 + 4 + 1 + 2 + 3 + 4 +

F|-------------------------------------------------7-5-4-5-4---4-----------|
C|-----------------------------------------------------------7---7-5-7-5-4-|
G|-------------------------------2-3-3-3-3-3-3-3-3-------------------------|
C|-2-2-2---2-2-2-2---2-2---2-2-2-------------------------------------------|
   1 + 2 + 3 + 4 + 1 + 2 + 3 + 4 + 1 + 2 + 3 + 4 + Tripl Tripl Tripl Tripl

(F|----------------------------|)
(C|-12-10-9-10-9-7-9-7-5-7-5-4-|) Might be easier to play the run this way
(G|----------------------------|) Same Triplet timing
(C|----------------------------|)

Outro 3:01
F|-----------------------------------------------------------------|
C|-----------------5-------------------------------4-4-4-4-4-4-4-0-|
G|---------------5-------------------------------4-----------------|
C|-5---5-----5---------------------4---4-----4---------------------|
   1 + 2 + 3 + 4 + 1 + 2 + 3 + 4 + 1 + 2 + 3 + 4 + 1 + 2 + 3 + 4 +

F|-----------------------------------------------------------------|
C|-----------------------------------------------------------------|
G|---------------2/7---------------3---3-----3---3-5-5-5-5-5-5-5-5-|
C|-2---2-----2-----------------------------------------------------|
   1 + 2 + 3 + 4 + 1 + 2 + 3 + 4 + 1 + 2 + 3 + 4 + 1 + 2 + 3 + 4 +

F|-----------------------------------------------------------------|
C|-----------------5-------------------------------4-4-4-4-7-7-9-9-|
G|---------------5-------------------------------4-----------------|
C|-5---5-----5---------------------4---4-----4---------------------|
   1 + 2 + 3 + 4 + 1 + 2 + 3 + 4 + 1 + 2 + 3 + 4 + 1 + 2 + 3 + 4 +

F|------------------------------------------------------------------------|
C|-----------------------------------------------------------------5------|
G|---------------2/7---------------3---3---3---3---5----------------------|
C|-2---2-----2---------------------------------------0-0-0-0-0-0-0--------|
   1 + 2 + 3 + 4 + 1 + 2 + 3 + 4 + 1 + 2 + 3 + 4 + 1 + 2 + 3 + 4 +
Tabbed by Dave Vucko

===============================================================================================
13. Father, Brother
===============================================================================================

Intro (0:09)
F|-------------------------------------|
C|-------------------------------------|
G|----------00000000----------22222222-|
C|-33333333----------22222222----------|x1

Verse (0:16)

Pre-Chorus (0:31)

Chorus (0:38)
F|-------------------------------------|
C|-------------------------------------|
G|----------00000000----------22222222-|
C|-33333333----------22222222----------|x2

Verse (0:53)

Pre-Chorus (1:08)

Chorus (1:15)
F|-------------------------------------|
C|-------------------------------------|
G|----------00000000----------22222222-|
C|-33333333----------22222222----------|x2

Bridge (1:30)
F|-------------------------------------|
C|-------------------------------------|
G|----------00000000----------22222222-|
C|-33333333----------22222222----------|x2

Chorus (1:46)
F|-------------------------------------|
C|-------------------------------------|
G|----------00000000----------22222222-|
C|-33333333----------22222222----------|x4
Tabbed by Jack Mills

===============================================================================================
Jack Mills ... Hope You Found This Useful ^^
===============================================================================================

            
            
Suggest correction
Creating personal tab
Creating personal tab
You can edit any tab online and save it as your Personal.

You can edit, replace or remove any tab part or add personal notes – all changes will be seen only by you.

Personal tabs can be accessed anytime from any device, even offline.
Learn more »
comments
print report bad tab
9 comments total. Showing first comments.
+1 reply
Andy Purdy 10 May 20, 2013 03:08 AM

pls make tabs for I alone and Fahter, Brohter...The tweo songs is in etf premium album Ungratful

0 reply
JackMills 6,147 May 20, 2013 03:48 AM

I still haven't heard them yet, but I will try and do them sometime today. Keep an eye on the tab queue ^^

0 reply
Andy Purdy 10 May 21, 2013 07:58 AM

I love you <3 Not gai...Thanks :D

guest
You may want to rate the tab now too:
select rating
Wanna post a correction for this tab? Suggest correction