Oops, an error
Loading. Please wait.

Ungrateful bass

version 1
version 1

Whole song

Interactive

3,631 views 1 this week
3 commentsread comments
1 2 3 4 5
x 4
add to favorites
×
Save as Personal and add changes to this tab that will be seen only by you. Learn more ›
×
You can save this tab as Personal to edit and correct it or add notes. All changes will be seen only by you. Learn more »
launch autoscroll
font size
0
reset
guitar tuner
edit
Autoscroll
slow
fast
+/-
esc
set tempo
stop
0:00 Verse
F|-------------------------------------------------------------------|
C|o-----------------------------------------------------------------o|
G|o-----------------------------------------------------------------o|
C|--3-0-0-0---0-0---5---0-0---0-0---6-0-0-0---0-0---0-0-0-0-0-0-0-0--|x4
    1 e + a 2 e + a 3 e + a 4 e + a 1 e + a 2 e + a 3 e + a 4 e + a

0:15 Pre-Chorus
F|-----------------------------------------------------------------|
C|-3-0---0---0---------------------3-0---0---0-----2-3-2-0---0-2-3-|
G|---------------------------------------------------------3-------|
C|---------------0-3-\---------------------------------------------|
   1 e + a 2 e + a 3 e + a 4 e + a 1 e + a 2 e + a 3 e + a 4 e + a

F|-----------------------------------------------------------------|
C|-3-0---0---0---------------------3-0---0---0-----3-5-3-2-0-2-3-5-|
G|-----------------------------------------------------------------|
C|---------------0-3-\---------------------------------------------|
   1 e + a 2 e + a 3 e + a 4 e + a 1 e + a 2 e + a 3 e + a 4 e + a

F|-----------------------------------------------------------------|
C|-3-0---0---0---------------------3-0---0---0-----2-3-2-0---0-2-3-|
G|---------------------------------------------------------3-------|
C|---------------0-3-\---------------------------------------------|
   1 e + a 2 e + a 3 e + a 4 e + a 1 e + a 2 e + a 3 e + a 4 e + a

F|-----------------------------------------------------------------|
C|-3-0---0---0---------------------3-0---0---0-----3---3---2---2---|
G|-----------------------------------------------------------------|
C|---------------0-3-\---------------------------------------------|
   1 e + a 2 e + a 3 e + a 4 e + a 1 e + a 2 e + a 3 e + a 4 e + a

0:30 Chorus
F|-----------------------------------------------------------------|
C|-----------------------------------------------------------------|
G|-1-1-1-1-1-1-1-1-3-3-3-3-3-3-3-3-5-5-5-5-5-5-5-5-3-3-3-3-3-3-3-3-|
C|-----------------------------------------------------------------|
   1 + 2 + 3 + 4 + 1 + 2 + 3 + 4 + 1 + 2 + 3 + 4 + 1 + 2 + 3 + 4 +

F|-----------------------------------------------------------------|
C|-----------------------------------------------------------------|
G|-1-1-1-1-1-1-1-1-3-3-3-3-3-3-3-3-5-5-5-5-5-5-5-5-0-0-0-0-8-8-7-7-|
C|-----------------------------------------------------------------|
   1 + 2 + 3 + 4 + 1 + 2 + 3 + 4 + 1 + 2 + 3 + 4 + 1 + 2 + 3 + 4 +

0:44 Verse
F|------------------------------------------------------------------|
C|o-----------------------------------------------------------------|
G|o-----------------------------------------------------------------|
C|--3---0-0---0-0---5---0-0---0-0---6-0-0-0---0-0---0-0-0-0-0-0-0-0-|
    1 e + a 2 e + a 3 e + a 4 e + a 1 e + a 2 e + a 3 e + a 4 e + a

F|------------------------------------------------------------------|
C|-----------------------------------------------------------------o|
G|-----------------------------------------------------------------o|
C|-3-0-0-0---0-0---5---0-0---0-0---6-0-0-0---0-0---0-0-0-0-0-0-0-0--|
   1 e + a 2 e + a 3 e + a 4 e + a 1 e + a 2 e + a 3 e + a 4 e + a

0:59 Pre-Chorus
F|-----------------------------------------------------------------|
C|-3-0---0---0---------------------3-0---0---0-----2-3-2-0---0-2-3-|
G|---------------------------------------------------------3-------|
C|---------------0-3-\---------------------------------------------|
   1 e + a 2 e + a 3 e + a 4 e + a 1 e + a 2 e + a 3 e + a 4 e + a

F|-----------------------------------------------------------------|
C|-3-0---0---0---------------------3-0---0---0-----3-5-3-2-0-2-3-5-|
G|-----------------------------------------------------------------|
C|---------------0-3-\---------------------------------------------|
   1 e + a 2 e + a 3 e + a 4 e + a 1 e + a 2 e + a 3 e + a 4 e + a

F|-----------------------------------------------------------------|
C|-3-0---0---0---------------------3-0---0---0-----2-3-2-0---0-2-3-|
G|---------------------------------------------------------3-------|
C|---------------0-3-\---------------------------------------------|
   1 e + a 2 e + a 3 e + a 4 e + a 1 e + a 2 e + a 3 e + a 4 e + a

F|-----------------------------------------------------------------|
C|-3-0---0---0---------------------3-0---0---0-----3---3---2---2---|
G|-----------------------------------------------------------------|
C|---------------0-3-\---------------------------------------------|
   1 e + a 2 e + a 3 e + a 4 e + a 1 e + a 2 e + a 3 e + a 4 e + a

1:14 Chorus
F|------------------------------------------------------------------|
C|o-----------------------------------------------------------------|
G|o-1-1-1-1-1-1-1-1-3-3-3-3-3-3-3-3-5-5-5-5-5-5-5-5-3-3-3-3-3-3-3-3-|
C|------------------------------------------------------------------|
    1 + 2 + 3 + 4 + 1 + 2 + 3 + 4 + 1 + 2 + 3 + 4 + 1 + 2 + 3 + 4 +

F|------------------------------------------------------------------|
C|-----------------------------------------------------------------o|
G|-1-1-1-1-1-1-1-1-3-3-3-3-3-3-3-3-5-5-5-5-5-5-5-5-0-0-0-0-8-8-7-7-o|
C|------------------------------------------------------------------|
   1 + 2 + 3 + 4 + 1 + 2 + 3 + 4 + 1 + 2 + 3 + 4 + 1 + 2 + 3 + 4 +

1:43 Bridge
F|-----------------------------------------------------------------|
C|-----------------------------------------------------------------|
G|-----------------------------------------------------------------|
C|-0-------0-------0---------------0-------0-------0---------------|
   1 + 2 + 3 + 4 + 1 + 2 + 3 + 4 + 1 + 2 + 3 + 4 + 1 + 2 + 3 + 4 +


F|-----------------------------------------------------------------|
C|-----------------------------------------------------------------|
G|-----------------------------------------------------------------|
C|-0-------0-------0---------------0-------2-------3-------5-------|
   1 + 2 + 3 + 4 + 1 + 2 + 3 + 4 + 1 + 2 + 3 + 4 + 1 + 2 + 3 + 4 +

1:58 Solo
F|-----------------------------------------------------------------|
C|-----------------------------------------------------------------|
G|-----------------------------------------------------------------|
C|-00------0000--0-22------2222222233------3333-33-22------22222222|
   1 + 2 + 3 + 4 + 1 + 2 + 3 + 4 + 1 + 2 + 3 + 4 + 1 + 2 + 3 + 4 +

F|-----------------------------------------------------------------|
C|-----------------------------------------------------------------|
G|-----------------------------------------------------------------|
C|-00------0000--0-22------2222222233------3333-33-55------55555555|
   1 + 2 + 3 + 4 + 1 + 2 + 3 + 4 + 1 + 2 + 3 + 4 + 1 + 2 + 3 + 4 +

F|---------------------------------|
C|---------------------------------|
G|-------------------------8-8-7-7-|
C|-5-------5-------5---------------|
   1 + 2 + 3 + 4 + 1 + 2 + 3 + 4 +

2:17 Chorus
F|-----------------------------------------------------------------|
C|-----------------------------------------------------------------|
G|-1-1-1-1-1-1-1-1-3-3-3-3-3-3-3-3-5-5-5-5-5-5-5-5-3-3-3-3-3-3-3-3-|
C|-----------------------------------------------------------------|
   1 + 2 + 3 + 4 + 1 + 2 + 3 + 4 + 1 + 2 + 3 + 4 + 1 + 2 + 3 + 4 +

F|-----------------------------------------------------------------|
C|-----------------------------------------------------------------|
G|-1-1-1-1-1-1-1-1-3-3-3-3-3-3-3-3-5-5-5-5-5-5-5-5-0-0-0-0-8-8-7-7-|
C|-----------------------------------------------------------------|
   1 + 2 + 3 + 4 + 1 + 2 + 3 + 4 + 1 + 2 + 3 + 4 + 1 + 2 + 3 + 4 +

2:31
F|------------------------------------------------------------------|
C|o-----------------------------------------------------------------|
G|o-11------1111--1-33------3333333355------5555--5-33------33333333|
C|------------------------------------------------------------------|
    1 + 2 + 3 + 4 + 1 + 2 + 3 + 4 + 1 + 2 + 3 + 4 + 1 + 2 + 3 + 4 +

F|------------------------------------------------------------------|
C|-----------------------------------------------------------------o|
G|-11------1111--1-33------3333333355------5555--5-00------8-8-7-7-o|
C|------------------------------------------------------------------|
   1 + 2 + 3 + 4 + 1 + 2 + 3 + 4 + 1 + 2 + 3 + 4 + 1 + 2 + 3 + 4 +


3:01 Outro (Slowed Down)
F|-----------------------------------------------------------------|
C|-----------------------------------------------------------------|
G|-----------------------------------------------------------------|
C|-0---0---0-------0---0---0-------0---0---0-------0---0---0-------|
   1 + 2 + 3 + 4 + 1 + 2 + 3 + 4 + 1 + 2 + 3 + 4 + 1 + 2 + 3 + 4 +

F|-----------------------------------------------------------------|
C|-----------------------------------------------------------------|
G|-----------------------------------------------------------------|
C|-0---------------------------------------------------------------|
   1 + 2 + 3 + 4 + 1 + 2 + 3 + 4 + 1 + 2 + 3 + 4 + 1 + 2 + 3 + 4 +

Tabbed By Jack Mills & Dave Vucko
Suggest correction
Creating personal tab
Creating personal tab
You can edit any tab online and save it as your Personal.

You can edit, replace or remove any tab part or add personal notes – all changes will be seen only by you.

Personal tabs can be accessed anytime from any device, even offline.
Learn more »
comments
print report bad tab
3 comments total.
0 reply
tommoandrew 10 May 15, 2013 01:48 PM

good work, but i think in the solo it should go:
00 00000000 22 22222222 etc, as the notes are shorter and faster, to give the solo that heavier feel. Great tab though :)

0 reply
DarknessWolf15 52 May 18, 2013 11:27 AM

The bass actually follows what the guitars are playing in the pre-chorus.

0 reply
DarknessWolf15 52 May 18, 2013 12:25 PM

I based this off of a guitar tab for the pre-chorus:

F ------------------------------------------
C ------------------------------------------
G ---------3------------------8-7---------7-
C -3h0-0-------3h0-0----7-10------10-7-10---

guest
You may want to rate the tab now too:
select rating
Wanna post a correction for this tab? Suggest correction