Oops, an error
Loading. Please wait.

Webs We Weave bass

version 1
version 1

Whole song

Interactive

9,191 views 1 this week
3 commentsread comments
1 2 3 4 5
x 9
add to favorites
×
Save as Personal and add changes to this tab that will be seen only by you. Learn more ›
×
You can save this tab as Personal to edit and correct it or add notes. All changes will be seen only by you. Learn more »
launch autoscroll
font size
0
reset
guitar tuner
edit
Autoscroll
slow
fast
+/-
esc
set tempo
stop
++++++++++++++++++++++++++++++++++++++
| Escape The Fate- The Webs We Weave |
++++++++++++++++++++++++++++++++++++++

Tuning: Drop D (DADG)

Intro
1.
G|-------------------------------------------------------|
D|-------------------------------------------------------|
A|---------------------11111111-11111111-33333333-333333-|--x2
D|-x0~-0x----x0~-0x--------------------------------------|

Verse
"So grab this statement..."
2.
G|------------------------------------------------|
D|------------------------------------------------|
A|-----------------------1~x----------------------|--x2
D|-0~x--------0~x-------------------3~-333-2~-222-|

Pre-Chorus
"Before I die..."
3.
G|-------------------------------------------------------------------|
D|-------------------------------------------------------------------|
A|-111-111-111-111-333-333-333-3h5-111-111-111-111-0~----------------|
D|-------------------------------------------------------3x----2x----|

Chorus
"Oh the webs you weave..."
4.
G|-------------------------------------------------------|
D|-------------------------------------------------------|
A|---------------------11111111-11111111-33333333-333333-|--x2
D|-x0~-0x----x0~-0x--------------------------------------|

Outro
5.
G|-----------------------|
D|-----------------------|
A|-----------------------|
D|-0~x--------0~x--------|

Verse
"So paint my portrait..."
6.
G|------------------------------------------------|
D|------------------------------------------------|
A|-----------------------1~x----------------------|--x2
D|-0~x--------0~x-------------------3~-333-2~-222-|

Pre-Chorus
"Before I die..."
7.
G|-------------------------------------------------------------------|
D|-------------------------------------------------------------------|
A|-111-111-111-111-333-333-333-3h5-111-111-111-111-0~----------------|
D|-------------------------------------------------------3x----2x----|

Chorus
"Oh the webs you weave..."
8.
G|-------------------------------------------------------|
D|-------------------------------------------------------|
A|---------------------11111111-11111111-33333333-333333-|--x2
D|-x0~-0x----x0~-0x--------------------------------------|

Outro
9.
G|----------------------------------------------------------------------|
D|------------------------------------000000000000000--000000000000000--|
A|--111111111111111--333333333333333------------------------------------|--x4
D|----------------------------------------------------------------------|

Chorus
"Oh the webs you weave..."
10.
G|---------------------------------------------------------|
D|---------------------------------------------------------|
A|--------------------3~-11111111-11111111-33333333-333333-|
D|-x0~-0x----x0~-0x----------------------------------------|

"Oh the webs I weave..."
11.
G|-------------------------------------------------------|
D|-------------------------------------------------------|
A|---------------------11111111-11111111-33333333-333333-|
D|-x0~-0x----x0~-0x--------------------------------------|

Outro
12.
G|-------------------|
D|-------------------|
A|-------------------|
D|-0~-0x-0-0~--------|

Lyrics:

So grab this statement
And read between the lines
I'm walking on an edge
That's how I stay alive
I need a fix now
The pills I have to take
It helps me live a lie
and blinds all my mistakes

Before I die
I will have seen it all
the mountains I have climbed
help me enjoy the fall

Oh the webs you weave
We are caught in the fame
the passion's dead
the life you've lead
has drown in your shame
oh the webs I weave
I am caught in this game
my passions dead
the life I've lead
has drowned me in vain

So paint my portrait
the colours of my life
and the untold stories are painted in black and white
I can hear the footsteps
that follow to my pulse
this paranoia has haunted me like a ghost

I will have seen it all 
I'm killing time
Let me go
before I die
I will have seen it all
it reads their minds
brings them close
before I die
I will have seen it all

+++++++++++++++++++++++++++++++++
| RaiLeff                       |
| Underground__Dora@Hotmail.Com |
+++++++++++++++++++++++++++++++++

            
            
Suggest correction
Creating personal tab
Creating personal tab
You can edit any tab online and save it as your Personal.

You can edit, replace or remove any tab part or add personal notes – all changes will be seen only by you.

Personal tabs can be accessed anytime from any device, even offline.
Learn more »
comments
print report bad tab
3 comments total.
0 reply
TragedyxLLBD 10 Jul 18, 2007 09:16 AM

good job.

0 reply
lil-bass-man 310 Feb 06, 2008 12:43 AM

good job dude 5*

+1 reply
shavorules42 161 Jun 06, 2009 07:41 PM

good job but etf plays in drop c

guest
You may want to rate the tab now too:
select rating
Wanna post a correction for this tab? Suggest correction