Oops, an error
Loading. Please wait.

You Are So Beautiful tab

version 2
version 2

Whole song

Interactive

17,779 views 3 this week
no commentswrite comment
1 2 3 4 5
x 8
add to favorites
×
Save as Personal and add changes to this tab that will be seen only by you. Learn more ›
×
You can save this tab as Personal to edit and correct it or add notes. All changes will be seen only by you. Learn more »
launch autoscroll
font size
0
reset
how to read this tab
guitar tuner
edit
Autoscroll
slow
fast
+/-
esc
set tempo
stop
Author
b=bend
/= slide up
\= slide down
h= harmonic pic
.= muffled
x= muffled (lift hands of the frets but still strum)
Intro

LEAD
D---------------------------------------------------------------------------|
A-----------------------------------6----6----10----5---5---5---6----6------|
F------------------------------------8b10-8b10-12b14-7b9-7b9-7b9-8b10-8b10--|
C-3333337-2222222-3333337-22-22-22------------------------------------------|
G-3333337-2222222-3333337-22-22-22------------------------------------------|
C-3333337-2222222-3333337-22-22-22------------------------------------------|


D-----------|
A-10----5---|
F-12b14-7b9-|
C-----------|
G-----------|
C-----------|


RHYTHM
D-------------------------------|
A-------------------------------|
F-------------------------------| x2
C-333337-222222-333337-22-22-22-|
G-333337-222222-333337-22-22-22-|
C-333337-222222-333337-22-22-22-|


Verse 1

LEAD
D--------------------------------------------------------------------------|
A--------------------------------------------------------------------------|
F-7777-6-77---------3333-2-33----------------------------------------------|
C-7777-6-77---------3333-2-33---------3333------7777------0000222233337777-|
G-5555-4-55---------1111-0-11---------3333------7777------0000222233337777-|
C-------------------------------------3333------7777------0000222233337777-|
                                                                       ...

D------------------------------1/55555-------------------------------|
A-----------4/66666------------2/66666-------------------------------|
F-7777-6-77-5/77777-3333-2-33----------------------------------------|
C-7777-6-77---------3333-2-33----------3333------7777------000022223-|
G-5555-4-55---------1111-0-11----------3333------7777------000022223-|
C--------------------------------------3333------7777------000022223-|


RHYTHM
D--------------------------------------------------------------------------|
A--------------------------------------------------------------------------|
F-7777-6-77---------3333-2-33----------------------------------------------|
C-7777-6-77---------3333-2-33---------3333------7777------0000222233337777-|
G-5555-4-55---------1111-0-11---------3333------7777------0000222233337777-|
C-------------------------------------3333------7777------0000222233337777-|
                                                                       ...

D-------------------------------------------------------------------|
A-------------------------------------------------------------------|
F-7777-6-77---------3333-2-33---------------------------------------|
C-7777-6-77---------3333-2-33---------3333------7777------000022223-|
G-5555-4-55---------1111-0-11---------3333------7777------000022223-|
C-------------------------------------3333------7777------000022223-|


Chorus (let everything ring)

LEAD/RHYTHM
D------------------------------------------------------|
A------------------------------------------------------|
F-77-7-77-7--33-3-33-xx-x------------------------------| x2
C-77-7-77-7--33-3-33-xx-x--33-3-3-77-7-7-0000222233337-|
G-55-5-55-5--11-1-11-xx-x--33-3-3-77-7-7-0000222233337-|
C--------------------------33-3-3-77-7-7-0000222233337-|


Post Chorus
LEAD/RHYTHM
D-----------|
A-----------|
F-----------|
C-0000-0-00-|
G-0000-0-00-|
C-0000-0-00-|
  .... . ..

Verse 2
LEAD
D--------------------------------------------------------------------------|
A---------------6h~-----------1////9---------------------------------------|
F-7777-6-77---------3333-2-33-2////10--------------------------------------|
C-7777-6-77---------3333-2-33---------3333------7777------0000222233337777-|
G-5555-4-55---------1111-0-11---------3333------7777------0000222233337777-|
C-------------------------------------3333------7777------0000222233337777-|
                                                                       ...

D------------------------------1/55555--------------5555555555----------5\\\1-|
A-----------4/66666------------2/66666-6666-6-6-6---6666666666----------6\\\2-|
F-7777-6-77-5/77777-3333-2-33----------7777-7-7-7-----------------------------|
C-7777-6-77---------3333-2-33----------------------------------00002222-------|
G-5555-4-55---------1111-0-11----------------------------------00002222-------|
C--------------------------------------------------------------00002222-------|


RHYTHM
D--------------------------------------------------------------------------|
A--------------------------------------------------------------------------|
F-7777-6-77---------3333-2-33----------------------------------------------|
C-7777-6-77---------3333-2-33---------3333------7777------0000222233337777-|
G-5555-4-55---------1111-0-11---------3333------7777------0000222233337777-|
C-------------------------------------3333------7777------0000222233337777-|
                                                                       ...

D---------------------------------------------------------------------|
A---------------------------------------------------------------------|
F-7777-6-77---------3333-2-33-----------------------------------------|
C-7777-6-77---------3333-2-33---------3333------7777------000022223---|
G-5555-4-55---------1111-0-11---------3333------7777------000022223---|
C-------------------------------------3333------7777------000022223---|


Chorus
LEAD/RHYTHM
D----------------------------------------------------------------------------|
A----------------------------------------------------------------------------|
F-77-7-77-7--33-3-33-xx-x-------------------------------77-7-77-7-33-3-33-xx-|
C-77-7-77-7--33-3-33-xx-x--33-3-3-77-7-7--0000222233337-77-7-77-7-33-3-33-xx-|
G-55-5-55-5--11-1-11-xx-x--33-3-3-77-7-7--0000222233337-55-5-55-5-11-1-11-xx-|
C--------------------------33-3-3-77-7-7--0000222233337----------------------|


D------------------------------------------------------|
A------------------------------------------------------|
F-x----------------------------------------------------|
C-x--33-3-3-77-7-7--0000222233337777--0000222233337777-|
G-x--33-3-3-77-7-7--0000222233337777--0000222233337777-|
C----33-3-3-77-7-7--0000222233337777--0000222233337777-|
                                      ................

Pre-Bridge
LEAD/RHYTHM
D----------------------------------------------------------------------------|
A----------------------------------------------------------------------------|
F----------------------------------------------------------------------------|
C-------------------------------------------------------\\\\\\\\\\\----------|
G----------------------4-444-4-4-44---------1-111-1-1-11\\\\\\\\\\\----------|pick slide
C-0-000-0-0-00------------------------------------------\\\\\\\\\\\----------|
  . ... . . ..         . ... . . ..         . ... . . ..

D-------------------------|
A-------------------------|
F-------------------------|
C-------------3-2-0-5-3-2-|
G-------------3-2-0-5-3-2-|
C-0-000-0-0-0-3-2-0-5-3-2-|
  . ... . . . . . . . . .

Bridge (this may not be right cuz i could hardly hear the notes over Craig's singing)
LEAD (let it ring)
D---------12--13----------13--15----------13--12----------------------------|
A-----13--------------13--------------13--------------13--15--13--------13--|
F-12--------------12--------------12--------------12----------------12------|
C---------------------------------------------------------------------------|
G---------------------------------------------------------------------------|
C---------------------------------------------------------------------------|


D-12--13----------13--15----------13--12----------------------------------|
A-------------13--------------13--------------13--15--13~-----------------|
F---------12--------------12--------------12------------------------------|
C------------------------------------------------------------3-2-0-5-3-2~-|
G------------------------------------------------------------3-2-0-5-3-2~-|
C------------------------------------------------------------3-2-0-5-3-2~-|
                                                             . . . . .

RHYTHM
D----------------------------------------------------------------------------|
A----------------------------------------------------------------------------|
F----------------------------------------------------------------------------|
C----------------------------------------------------------------------------|
G----------------------4-444-4-4-44---------1-111-1-1-11---------------------|
C-0-000-0-0-00---------------------------------------------------0-000-0-0-0-|
  . ... . . ..         . ... . . ..         . ... . . ..         . ... . . .

D----------------------------------------------------------------------------|
A----------------------------------------------------------------------------|
F----------------------------------------------------------------------------|
C-3-2-0-5-3-2----------------------------------------------------------------|
G-3-2-0-5-3-2----------------------4-444-4-4-44---------1-111-1-1-11---------|
C-3-2-0-5-3-2-0-000-0-0-00---------------------------------------------------|
  . . . . . . . ... . . ..         . ... . . ..         . ... . . ..

D--------------------------------------------------|
A--------------------------------------------------|
F--------------------------------------------------|
C-------------3-2-0-5-3-2-3-2-0-5-3-2-3-2-0-5-3-2~-|
G-------------3-2-0-5-3-2-3-2-0-5-3-2-3-2-0-5-3-2~-|
C-0-000-0-0-0-3-2-0-5-3-2-3-2-0-5-3-2-3-2-0-5-3-2~-|
  . ... . . . . . . . . . . . . . . . . . . . .

Chorus
LEAD/RHYTHM
D-----------------------------------------------------------------------------|
A-----------------------------------------------------------------------------|
F-77-7-77-7--33-3-33-xx-x-------------------------------7-7-7-7-7-7-7-7-3-3-3-|
C-77-7-77-7--33-3-33-xx-x--33-3-3-77-7-7--0000222233337-7-7-7-7-7-7-7-7-3-3-3-|
G-55-5-55-5--11-1-11-xx-x--33-3-3-77-7-7--0000222233337-5-5-5-5-5-5-5-5-1-1-1-|
C--------------------------33-3-3-77-7-7--0000222233337-----------------------|


D----------------------------------------------------------------|
A----------------------------------------------------------------|
F----------------------------------------------------------------|
C-3-3-3-3-3-3-3-3-3-7-7-7-7--0000222233337777--000022223333-7-7--|
G-3-3-3-3-3-3-3-3-3-7-7-7-7--0000222233337777--000022223333-7-7--|
C-1-1-1-1-1-3-3-3-3-7-7-7-7--0000222233337777--000022223333-7-7--|
                                               ............ . .

Outro
LEAD
D--------------------------------|
A-10-----13----13----14----15----|
F-12b14--15b17-15b17-16b18-17b19-|
C--------------------------------|
G--------------------------------|
C--------------------------------|


RHYTHM
D---------------|
A---------------|
F---------------|
C---------------|
G---------------|
C-7-777-3-3-2-0-|
  . ... . . . .

            
            
Suggest correction
Creating personal tab
Creating personal tab
You can edit any tab online and save it as your Personal.

You can edit, replace or remove any tab part or add personal notes – all changes will be seen only by you.

Personal tabs can be accessed anytime from any device, even offline.
Learn more »
comments
print report bad tab
guest
You may want to rate the tab now too:
select rating
Wanna post a correction for this tab? Suggest correction