Oops, an error
Loading. Please wait.

Black Fingernails Red Wine bass

version 1
version 1

Whole song

Interactive

1,984 views 1 this week
2 commentsread comments
1 2 3 4 5
3 more votes to show rating
add to favorites
×
Save as Personal and add changes to this tab that will be seen only by you. Learn more ›
×
You can save this tab as Personal to edit and correct it or add notes. All changes will be seen only by you. Learn more »
launch autoscroll
font size
0
reset
guitar tuner
edit
Autoscroll
slow
fast
+/-
esc
set tempo
stop
Band:		ESKIMO JOE
Song:		BLACK FINGERNAILS, RED WINE
Album/EP:		BLACK FINGERNAILS, RED WINE 
Label:		FESTIVAL RECORDS
Bassist:		KAV TEMPERLEY
Tuning:		Drop D (GDAD)

VERSE x 1 (0.31)

G|-----------------------------|
D|-----------------------------|
A|-----------------------------|
E|-9\-3-3-3-2-2-2-2/5-5-5-5----|


G|-----------------------------------|
D|-----------------------------------|
A|-----------------------------------|
E|-9\-3-3-3-2-2-2-2/77777777---------|

VERSE x 2 (0.54)

G|---------------------------|
D|---------------------------|
A|---------------------------|
E|--3-3-3-2-2-2-2/5-5-5-5----|

G|---------------------------------|
D|---------------------------------|
A|---------------------------------|
E|--3-3-3-2-2-2-2/77777777---------|


CHORUS PT 1 x 3 (1.10)

G|----------------------------------------|
D|----------------------------------------|
A|----------------------------------------|
E|--55555555-77777777-33333333-22222222---|

CHORUS PT 2 x 1

G|--------------------------------------------|
D|--------------------------------------------|
A|--------------------------------------------|
E|--55555555-77777777-3-3-3-2-2-2-2-2/55555---|

G|---------------------------------|
D|---------------------------------|
A|---------------------------------|
E|--3-3-3-2-2-2-2/77777777---------|

VERSE x 2 (1.52)

G|---------------------------|
D|---------------------------|
A|---------------------------|
E|--3-3-3-2-2-2-2/5-5-5-5----|

G|---------------------------------|
D|---------------------------------|
A|---------------------------------|
E|--3-3-3-2-2-2-2/77777777---------|

CHORUS PT 1 x 3 (2.08)

G|----------------------------------------|
D|----------------------------------------|
A|----------------------------------------|
E|--55555555-77777777-33333333-22222222---|

CHORUS PT 2 x1

G|--------------------|
D|--------------------|
A|--------------------|
E|--55555555-77777777-|

CHORUS PT 3 x 3

G|---------------------------|
D|---------------------------|
A|---------------------------|
E|--3-3-3-2-2-2-2/5-5-5-5----|

G|---------------------------------|
D|---------------------------------|
A|---------------------------------|
E|--3-3-3-2-2-2-2/77777777---------|

CHORUS PT x 3(3.13)

G|----------------------------------------|
D|----------------------------------------|
A|----------------------------------------|
E|--55555555-77777777-33333333-22222222---|

CHORUS PT 2 x1

G|--------------------|
D|--------------------|
A|--------------------|
E|--55555555-77777777-|

OUTRO x 2

G|----------------------------------------|
D|----------------------------------------|
A|----------------------------------------|
E|--3-3-3/5-5-5-5\3-3-3/77777777----------|

            
            
Suggest correction
Creating personal tab
Creating personal tab
You can edit any tab online and save it as your Personal.

You can edit, replace or remove any tab part or add personal notes – all changes will be seen only by you.

Personal tabs can be accessed anytime from any device, even offline.
Learn more »
Give kudos to tab author, rate the tab!
1 2 3 4 5
comments
print report bad tab
2 comments total.
0 reply
rockhead16 10 Jan 08, 2007 05:31 PM

dude! make up your mind bout the tunin'

0 reply
rcdoggy 52 Jul 21, 2013 07:12 PM

Why would you tab this song in dropped D when it never utilises a low D or E flat. Secondly this tab is completely wrong.

guest
You may want to rate the tab now too:
select rating
Wanna post a correction for this tab? Suggest correction