Oops, an error
Loading. Please wait.

Black Fingernails Red Wine tab

version 2
version 2

Whole song

Interactive

1,245 views 1 this week
4 commentsread comments
1 2 3 4 5
x 5
add to favorites
×
Save as Personal and add changes to this tab that will be seen only by you. Learn more ›
×
You can save this tab as Personal to edit and correct it or add notes. All changes will be seen only by you. Learn more »
launch autoscroll
font size
0
reset
how to read this tab
guitar tuner
edit
Autoscroll
slow
fast
+/-
esc
set tempo
stop
Difficulty
intermediate
Song: Black fingernails, redwine
Artist: Eskimo Joe

standed tunning

Intro
   d             c
E ------------------------------------------------|
B ------------------------------------------------|
G ------------------------------------------------|
D -12-12-12-12-12-3-3-3-3-5-5-5-5-5-5-5-5-5-5-5-5-|
A -12-12-12-12-12-3-3-3-3-5-5-5-5-5-5-5-5-5-5-5-5-|
e -10-10-10-10-10-1-1-1-1-3-3-3-3-3-3-3-3-3-3-3-3-|

Verse 1
  black fingernails, red wine, I wanna make u all mine
E -----------------------------------------------------|
B -----------------------------------------------------|
G -----------------------------------------------------|
D -12---12-12-12-12--3--3-3-3--5-5-5-5-5-5-5-5-5-5-5-5-|
A -12---12-12-12-12--3--3-3-3--5-5-5-5-5-5-5-5-5-5-5-5-|
e -10---10-10-10-10--1--1-1-1--3-3-3-3-3-3-3-3-3-3-3-3-|

   A lotta people   undaground, u wanna get there,
E -------------------------------------------------|
B -------------------------------------------------|
G -------------------------------------------------|
D -12---12-12-12-12--3--3-3-3--5-5-5-5-5-5-5-5-5-5-|
A -12---12-12-12-12--3--3-3-3--5-5-5-5-5-5-5-5-5-5-|
e -10---10-10-10-10--1--1-1-1--3-3-3-3-3-3-3-3-3-3-|

  you gotta go straight down      (woah) straight down       (woah)
E----------------------------------------------------------------------|
B----------------------------------------------------------------------|
G------------------------------------------------10-10-10-10-----------|
D-5-5-5-5-5-5-5-5-5-5-12-12-12-12-3----------3---10-10-10-10-3------3--|
A-5-5-5-5-5-5-5-5-5-5-12-12-12-12-3----------3---8--8--8--8--3------3--|
e-3-3-3-3-3-3-3-3-3-3-10-10-10-10-1----------1---------------1------1--|
                      ٨   ٧  ٧  ٨ ^_let ring_^   ٨  
 ٧  ٨  ^ ring ^


   Theres a cold chill  everywhere, smoke clouds hang in the air
E ----------------------------------------------------------------|
B ----------------------------------------------------------------|
G ----------------------------------------------------------------|
D -12-12-12-12-12-12-12--3--3-3-3--5-5-5-5-5-5-5-5-5-5-5-5-5-5-5--|
A -12-12-12-12-12-12-12--3--3-3-3--5-5-5-5-5-5-5-5-5-5-5-5-5-5-5--|
e -10-10-10-10-10-10-10--1--1-1-1--3-3-3-3-3-3-3-3-3-3-3-3-3-3-3--|

 SO loud i cant hear you talk, you and i should take a walk downtown
E ------------------------------------------------------------------------|
B ------------------------------------------------------------------------|
G ------------------------------------------------------------------------|
D -12-12-12---3-3-3-3-3-3-----5-5-5-5-5-5-5-5-5-5-5-5-5-5-5-5-12-12-12-12-|
A -12-12-12---3-3-3-3-3-3-----5-5-5-5-5-5-5-5-5-5-5-5-5-5-5-5-12-12-12-12-|
e -10-10-10---1-1-1-1-1-1-----3-3-3-3-3-3-3-3-3-3-3-3-3-3-3-3-10-10-10-10-|
                                                               ٨   ٧  ٧  ٨

Bridge
 (woah) straight down       (woah)
E -----------------------------------|
B -----------------------------------|
G ---------------10-10-10-10---------|
D -3----------3--10-10-10-10-3-------|
A -3----------3--8--8--8--8--3-------|
e -1----------1--------------1-------|
  ^_let ring_^   ٨  ٧  ٧  ٨  ^ ring ^

      down town      (woah) straight down       (woah)
> -----------------------------------------------------|
> -----------------------------------------------------|
> ---------------------------------10-10-10-10---------|
> --3--12-12-12-12---3----------3--10-10-10-10-3-------|
> --3--12-12-12-12---3----------3--8--8--8--8--3-------|
> --1--10-10-10-10---1----------1--------------1-------|
ring^   ٨  ٧  ٧  ٨   ^_let ring_^   ٨  ٧  ٧  ٨  ^ ring ^

Chorus
  The arguement over God continues (in this    house)
E -----------------------------------------------|
B -----------------------------------------------|
G -10-10-10-10-10--------------------------------|
D -10-10-10-10-10----5--5-5-5-5-5--12-12-12-12-3-|
A -------------------5--5-5-5-5-5--12-12-12-12-3-|
e -------------------3--3-3-3-3-3--10-10-10-10-1-|

  All of us stand and point our fingers (to the ground)
E ----------------------------------------------------|
B ----------------------------------------------------|
G -10-10-10-10-10-------------------------------------|
D -10-10-10-10-10----5--5-5--5-5-5-5-5--12-12-12-12-3-|
A -------------------5--5-5--5-5-5-5-5--12-12-12-12-3-|
e -------------------3--3-3--3-3-3-3-3--10-10-10-10-1-|

  All of us stand and point our fingers
E ----------------------------------------------------|
B ----------------------------------------------------|
G -10-10-10-10-10-------------------------------------|
D -10-10-10-10-10----5--5-5--5-5-5-5-5----12-12-12-12-|
A -------------------5--5-5--5-5-5-5-5----12-12-12-12-|
e -------------------3--3-3--3-3-3-3-3----10-10-10-10-|
                                          ٨   ٧  ٧  ٨

 (woah) straight down       (woah)
E -----------------------------------|
B -----------------------------------|
G ---------------10-10-10-10---------|
D -3----------3--10-10-10-10-3-------|
A -3----------3--8--8--8--8--3-------|
e -1----------1--------------1-------|
  ^_let ring_^   ٨  ٧  ٧  ٨  ^ ring ^


Verse 2
  Red letter day, black heart Its gonna tear you all apart
E ---------------------------------------------------------|
B ---------------------------------------------------------|
G ---------------------------------------------------------|
D -12---12-12-12-12--3--3-3-3--5-5-5-5-5-5-5-5-5-5-5-5-5-5-|
A -12---12-12-12-12--3--3-3-3--5-5-5-5-5-5-5-5-5-5-5-5-5-5-|
e -10---10-10-10-10--1--1-1-1--3-3-3-3-3-3-3-3-3-3-3-3-5-5-|

 So loud i cant hear you call you and i are gonna fall straight down
E -------------------------------------------------------------------------|
B -------------------------------------------------------------------------|
G -------------------------------------------------------------------------|
D -12-12-12---3--3-3-3-3-3-----5-5-5-5-5-5-5-5-5-5-5-5-5-5-5-5-12-12-12-12-|
A -12-12-12---3--3-3-3-3-3-----5-5-5-5-5-5-5-5-5-5-5-5-5-5-5-5-12-12-12-12-|
e -10-10-10---1--1-1-1-1-1-----3-3-3-3-3-3-3-3-3-3-3-3-3-3-3-3-10-10-10-10-|
                                                              ٨   ٧  ٧  ٨
Bridge
 (woah) straight down       (woah)
E -----------------------------------|
B -----------------------------------|
G ---------------10-10-10-10---------|
D -3----------3--10-10-10-10-3-------|
A -3----------3--8--8--8--8--3-------|
e -1----------1--------------1-------|
  ^_let ring_^   ٨  ٧  ٧  ٨  ^ ring ^

      down town      (woah) straight down       (woah)
> -----------------------------------------------------|
> -----------------------------------------------------|
> ---------------------------------10-10-10-10---------|
> --3--12-12-12-12---3----------3--10-10-10-10-3-------|
> --3--12-12-12-12---3----------3--8--8--8--8--3-------|
> --1--10-10-10-10---1----------1--------------1-------|
ring^   ٨  ٧  ٧  ٨   ^_let ring_^   ٨  ٧  ٧  ٨  ^ ring ^

Verse 1
  black fingernails, red wine, I wanna make u all mine
E -----------------------------------------------------|
B -----------------------------------------------------|
G -----------------------------------------------------|
D -12---12-12-12-12--3--3-3-3--5-5-5-5-5-5-5-5-5-5-5-5-|
A -12---12-12-12-12--3--3-3-3--5-5-5-5-5-5-5-5-5-5-5-5-|
e -10---10-10-10-10--1--1-1-1--3-3-3-3-3-3-3-3-3-3-3-3-|

   A lotta people   undaground, u wanna get there,
E -------------------------------------------------|
B -------------------------------------------------|
G -------------------------------------------------|
D -12---12-12-12-12--3--3-3-3--5-5-5-5-5-5-5-5-5-5-|
A -12---12-12-12-12--3--3-3-3--5-5-5-5-5-5-5-5-5-5-|
e -10---10-10-10-10--1--1-1-1--3-3-3-3-3-3-3-3-3-3-|

  you gotta go straight down      (woah) straight down       (woah)
E----------------------------------------------------------------------|
B----------------------------------------------------------------------|
G------------------------------------------------10-10-10-10-----------|
D-5-5-5-5-5-5-5-5-5-5-12-12-12-12-3----------3---10-10-10-10-3------3--|
A-5-5-5-5-5-5-5-5-5-5-12-12-12-12-3----------3---8--8--8--8--3------3--|
e-3-3-3-3-3-3-3-3-3-3-10-10-10-10-1----------1---------------1------1--|
                      ٨   ٧  ٧  ٨ ^_let ring_^   ٨  
 ٧  ٨  ^ ring ^

Chorus
  The arguement over God continues (in this    house)
E -----------------------------------------------|
B -----------------------------------------------|
G -10-10-10-10-10--------------------------------|
D -10-10-10-10-10----5--5-5-5-5-5--12-12-12-12-3-|
A -------------------5--5-5-5-5-5--12-12-12-12-3-|
e -------------------3--3-3-3-3-3--10-10-10-10-1-|

  All of us stand and point our fingers (to the ground)
E ----------------------------------------------------|
B ----------------------------------------------------|
G -10-10-10-10-10-------------------------------------|
D -10-10-10-10-10----5--5-5--5-5-5-5-5--12-12-12-12-3-|
A -------------------5--5-5--5-5-5-5-5--12-12-12-12-3-|
e -------------------3--3-3--3-3-3-3-3--10-10-10-10-1-|

  All of us stand and point our fingers
E ----------------------------------------------------|
B ----------------------------------------------------|
G -10-10-10-10-10-------------------------------------|
D -10-10-10-10-10----5--5-5--5-5-5-5-5----12-12-12-12-|
A -------------------5--5-5--5-5-5-5-5----12-12-12-12-|
e -------------------3--3-3--3-3-3-3-3----10-10-10-10-|
                                          ٨   ٧  ٧  ٨

Bridge
 (woah) straight down       (woah)
E -----------------------------------|
B -----------------------------------|
G ---------------10-10-10-10---------|
D -3----------3--10-10-10-10-3-------|
A -3----------3--8--8--8--8--3-------|
e -1----------1--------------1-------|
  ^_let ring_^   ٨  ٧  ٧  ٨  ^ ring ^

      down town      (woah) straight down       (woah)
> -----------------------------------------------------|
> -----------------------------------------------------|
> ---------------------------------10-10-10-10---------|
> --3--12-12-12-12---3----------3--10-10-10-10-3-------|
> --3--12-12-12-12---3----------3--8--8--8--8--3-------|
> --1--10-10-10-10---1----------1--------------1-------|
ring^   ٨  ٧  ٧  ٨   ^_let ring_^   ٨  ٧  ٧  ٨  ^ ring ^


Great song

It looks alot, but repeats itself

have fun,  God bless

Feejo
Suggest correction
Creating personal tab
Creating personal tab
You can edit any tab online and save it as your Personal.

You can edit, replace or remove any tab part or add personal notes – all changes will be seen only by you.

Personal tabs can be accessed anytime from any device, even offline.
Learn more »
comments
print report bad tab
4 comments total. Showing first comments.
0 reply
Kirdy 20 Oct 30, 2006 12:06 AM

sorry man but it kinda dosen't sound right? or maybe im skrewed in the ears, im not sure. thanks anyway! gwd stuff!

0 reply
Greenhorne_7 10 Nov 10, 2006 12:25 AM

wheres the 2nd guitar eskimo joe hav 2 guitarists other than that good

0 reply
timuren19 108 Nov 22, 2006 08:18 PM

yea hes rite theres 2 guitarist but it still dnt sound rite!!!

guest
Wanna post a correction for this tab? Suggest correction