Oops, an error
Loading. Please wait.

Black Fingernails Red Wine tab

version 3
version 3

Whole song

Interactive

7,567 views 1 this week
6 commentsread comments
1 2 3 4 5
x 6
add to favorites
×
Save as Personal and add changes to this tab that will be seen only by you. Learn more ›
×
You can save this tab as Personal to edit and correct it or add notes. All changes will be seen only by you. Learn more »
launch autoscroll
font size
0
reset
how to read this tab
guitar tuner
edit
Autoscroll
slow
fast
+/-
esc
set tempo
stop
Author
Black Fingernails, Red Wine
Eskimo Joe

Guitar 1 - standard tuning
Guitar 2 - drop 1 step (D#,G#,C#,F#,A#,d#)

Intro x2 (Guitar 1) [no words]
E|----------77777777-4444444444444444-|
A|-66666666-99999999-6666666666666666-|
D|-88888888---------------------------|
G|------------------------------------|
B|------------------------------------|
e|------------------------------------|
P.M...............................


Verse 1 (Guitar 1)
{Black Fingernails, Red Wine. I wanna make you, all mine}
E|----------77777777-4444444444444444-|
A|-66666666-99999999-6666666666666666-|
D|-88888888---------------------------|
G|------------------------------------|
B|------------------------------------|
e|------------------------------------|
P.M...............................

{A lot of people, underground. You wanna get there, you gotta go straight down}
E|----------77777777-4444444444444444-|
A|-66666666-99999999-6666666666666666-|
D|-88888888---------------------------|
G|------------------------------------|
B|------------------------------------|
e|------------------------------------|
P.M...................................

{oho. straight down. oho}
E|----------66666666-22222222----------|
A|-66666666-88888888-44444444-44444444-|
D|-88888888-------------------66666666-|
G|-------------------------------------|
B|-------------------------------------|
e|-------------------------------------|
P.M............................


Verse 2 (Guitar 1)
{There's a culture, everywhere. Smoke clouds, hang in the air}
E|----------77777777-4444444444444444-|
A|-66666666-99999999-6666666666666666-|
D|-88888888---------------------------|
G|------------------------------------|
B|------------------------------------|
e|------------------------------------|
P.M...............................

{It's so loud, can't hear you talk. You and I, should take a walk downtown}
E|----------77777777-4444444444444444-|
A|-66666666-99999999-6666666666666666-|
D|-88888888---------------------------|
G|------------------------------------|
B|------------------------------------|
e|------------------------------------|
P.M...............................

{oho. straight down. oho. downtown}
E|----------66666666-22222222----------|
A|-66666666-88888888-44444444-44444444-|
D|-88888888-------------------66666666-|
G|-------------------------------------|
B|-------------------------------------|
e|-------------------------------------|
P.M............................

{oho. straight down. oho}
E|----------66666666-22222222----------|
A|-66666666-88888888-44444444-44444444-|
D|-88888888-------------------66666666-|
G|-------------------------------------|
B|-------------------------------------|
e|-------------------------------------|
P.M............................


Chorus 
	    {The argument over God continues. In this, House}
(Guitar 1)  E|--------------------------------------------------------------|
	    A|--9--9--8--8--9--9--8--8--8--8----6-6--8----9--9---8--8--8--8-|
	    D|--------------------------------------------------------------|
	    G|-11-11-10-10-11-11-10-10-10-10-----8--10-----11---10-10-10-10-|
	    B|--------------------------------------------------------------|
	    e|--------------------------------------------------------------|

 	    G 		      A		   Em	    D
(Guitar 2)  The argument over God continues. In this, House

  	    {All of us stand and point our fingers. At the, ground}
(Guitar 1)  E|--------------------------------------------------------------|
	    A|--9--9--8--8--9--9--8--8--8--8----6-6--8----9--9---8--8--8--8-|
	    D|--------------------------------------------------------------|
	    G|-11-11-10-10-11-11-10-10-10-10-----8--10-----11---10-10-10-10-|
	    B|--------------------------------------------------------------|
	    e|--------------------------------------------------------------|

	    G			A		 Em	 D
(Guitar 2)  All of us stand and point our fingers. At the, ground.

	    {All of us stand and point our fingers}
(Guitar 1)  E|-------------------------------|
	    A|--9--9--8--8--9--9--8--8--8--8-|
	    D|-------------------------------|
	    G|-11-11-10-10-11-11-10-10-10-10-|
	    B|-------------------------------|
	    e|-------------------------------|

	    G			A
(Guitar 2)  All of us stand and point our fingers


Verse 3 (Guitar 1)
{oho. straight down. oho}
E|----------66666666-22222222----------|
A|-66666666-88888888-44444444-44444444-|
D|-88888888-------------------66666666-|
G|-------------------------------------|
B|-------------------------------------|
e|-------------------------------------|
P.M............................

{Red letter-day, Black heart. It's gonna tear you, all apart}
E|----------77777777-4444444444444444-|
A|-66666666-99999999-6666666666666666-|
D|-88888888---------------------------|
G|------------------------------------|
B|------------------------------------|
e|------------------------------------|
P.M...............................

{It's so loud, can't hear you talk. You and I, are gonna fall straight down}
E|----------77777777-4444444444444444-|
A|-66666666-99999999-6666666666666666-|
D|-88888888---------------------------|
G|------------------------------------|
B|------------------------------------|
e|------------------------------------|
P.M...............................

{oho. straight down. oho. downtown}
E|----------66666666-22222222----------|
A|-66666666-88888888-44444444-44444444-|
D|-88888888-------------------66666666-|
G|-------------------------------------|
B|-------------------------------------|
e|-------------------------------------|
P.M............................

{oho. straight down. oho}
E|----------66666666-22222222----------|
A|-66666666-88888888-44444444-44444444-|
D|-88888888-------------------66666666-|
G|-------------------------------------|
B|-------------------------------------|
e|-------------------------------------|
P.M............................


Chorus 
	    {The argument over God continues. In this, House}
(Guitar 1)  E|--------------------------------------------------------------|
	    A|--9--9--8--8--9--9--8--8--8--8----6-6--8----9--9---8--8--8--8-|
	    D|--------------------------------------------------------------|
	    G|-11-11-10-10-11-11-10-10-10-10-----8--10-----11---10-10-10-10-|
	    B|--------------------------------------------------------------|
	    e|--------------------------------------------------------------|

 	    G 		      A		   Em	    D
(Guitar 2)  The argument over God continues. In this, House

  	    {All of us stand and point our fingers. At the, ground}
(Guitar 1)  E|--------------------------------------------------------------|
	    A|--9--9--8--8--9--9--8--8--8--8----6-6--8----9--9---8--8--8--8-|
	    D|--------------------------------------------------------------|
	    G|-11-11-10-10-11-11-10-10-10-10-----8--10-----11---10-10-10-10-|
	    B|--------------------------------------------------------------|
	    e|--------------------------------------------------------------|

	    G			A		 Em	 D
(Guitar 2)  All of us stand and point our fingers. At the, ground.

	    {The argument over all continues. In this, House}
(Guitar 1)  E|--------------------------------------------------------------|
	    A|--9--9--8--8--9--9--8--8--8--8----6-6--8----9--9---8--8--8--8-|
	    D|--------------------------------------------------------------|
	    G|-11-11-10-10-11-11-10-10-10-10-----8--10-----11---10-10-10-10-|
	    B|--------------------------------------------------------------|
	    e|--------------------------------------------------------------|

 	    G 		      A		   Em	    D
(Guitar 2)  The argument over all continues. In this, House

	    {All of us stand and point our fingers}
(Guitar 1)  E|-------------------------------|
	    A|--9--9--8--8--9--9--8--8--8--8-|
	    D|-------------------------------|
	    G|-11-11-10-10-11-11-10-10-10-10-|
	    B|-------------------------------|
	    e|-------------------------------|

	    G			A
(Guitar 2)  All of us stand and point our fingers


Verse 4 (Guitar 1)
{oho. straight down. oho}
E|----------66666666-22222222----------|
A|-66666666-88888888-44444444-44444444-|
D|-88888888-------------------66666666-|
G|-------------------------------------|
B|-------------------------------------|
e|-------------------------------------|
P.M............................

{straight down. oho}
E|----------66666666-22222222----------|
A|-66666666-88888888-44444444-44444444-|
D|-88888888-------------------66666666-|
G|-------------------------------------|
B|-------------------------------------|
e|-------------------------------------|
P.M............................

{Black fingernails, Red Wine. I wanna make you, all mine}
[No guitar]

{A lot of people, underground. You wanna get there, you gotta go straight down}
E|----------77777777-4444444444444444-|
A|-66666666-99999999-6666666666666666-|
D|-88888888---------------------------|
G|------------------------------------|
B|------------------------------------|
e|------------------------------------|
P.M....................................

[no guitar] [no words]

Chorus 
	    {The argument over God continues. In this, House}
(Guitar 1)  E|--------------------------------------------------------------|
	    A|--9--9--8--8--9--9--8--8--8--8----6-6--8----9--9---8--8--8--8-|
	    D|--------------------------------------------------------------|
	    G|-11-11-10-10-11-11-10-10-10-10-----8--10-----11---10-10-10-10-|
	    B|--------------------------------------------------------------|
	    e|--------------------------------------------------------------|

 	    G 		      A		   Em	    D
(Guitar 2)  The argument over God continues. In this, House

  	    {All of us stand and point our fingers. At the, ground}
(Guitar 1)  E|--------------------------------------------------------------|
	    A|--9--9--8--8--9--9--8--8--8--8----6-6--8----9--9---8--8--8--8-|
	    D|--------------------------------------------------------------|
	    G|-11-11-10-10-11-11-10-10-10-10-----8--10-----11---10-10-10-10-|
	    B|--------------------------------------------------------------|
	    e|--------------------------------------------------------------|

	    G			A		 Em	 D
(Guitar 2)  All of us stand and point our fingers. At the, ground.

	    {The argument over all continues. In this, House}
(Guitar 1)  E|--------------------------------------------------------------|
	    A|--9--9--8--8--9--9--8--8--8--8----6-6--8----9--9---8--8--8--8-|
	    D|--------------------------------------------------------------|
	    G|-11-11-10-10-11-11-10-10-10-10-----8--10-----11---10-10-10-10-|
	    B|--------------------------------------------------------------|
	    e|--------------------------------------------------------------|

 	    G 		      A		   Em	    D
(Guitar 2)  The argument over all continues. In this, House

	    {All of us stand and point our fingers}
(Guitar 1)  E|--------------------------------------------------------------|
	    A|--9--9--8--8--9--9--8--8--8--8----6-6--8----9--9---8--8--8--8-|
	    D|--------------------------------------------------------------|
	    G|-11-11-10-10-11-11-10-10-10-10-----8--10-----11---10-10-10-10-|
	    B|--------------------------------------------------------------|
	    e|--------------------------------------------------------------|

	    G			A		   Em
(Guitar 2)  All of us stand and point our fingers


Outro
	    {oho. straight down. oho. straight down. oho. straight down. oho}
(Guitar 1)  E|-------------------------------------------------------------------|
	    A|-------------------------------------------------------------------|
	    D|-------------------------------------------------------------------|
	    G|-------------------------------------------------------------------|
	    B|---------11---------11---------11---------11---------11---------11-|
	    e|-11-9-11----11-9-11----11-9-11----11-9-11----11-9-11----11-9-11----|

	    E|----------|
	    A|-66666666-|
	    D|----------|
	    G|-88888888-|
	    B|----------|
	    e|----------|	

	    D		  G	A	      Em    D		  G	A
(Guitar 2)  oho. straight down. oho. straight down. oho. straight down. oho


There you go. It may be long but it sounds correct to me!! Enjoy!!!
Suggest correction
Creating personal tab
Creating personal tab
You can edit any tab online and save it as your Personal.

You can edit, replace or remove any tab part or add personal notes – all changes will be seen only by you.

Personal tabs can be accessed anytime from any device, even offline.
Learn more »
comments
print report bad tab
6 comments total. Showing first comments.
0 reply
Zhailzur 40 Dec 24, 2006 07:02 PM

Sounds good, this is probably the only tab which actually sounds like the real thing. Great job.

0 reply
Gtdude 10 Jan 22, 2007 01:47 PM

Great tab
finally a good tab so i can finally learn this song
well done

0 reply
howie clark 10 May 12, 2007 08:59 PM

what the **** man u put the tuning around the wrong way, it looks like the tuning is e,b,g,d,a,e???

guest
You may want to rate the tab now too:
select rating
Wanna post a correction for this tab? Suggest correction