Oops, an error
Loading. Please wait.

Black Fingernails Red Wine bass

version 5
version 5

Whole song

Interactive

295 views 1 this week
1 commentread comment
1 2 3 4 5
1 last vote to show rating
add to favorites
×
Save as Personal and add changes to this tab that will be seen only by you. Learn more ›
×
You can save this tab as Personal to edit and correct it or add notes. All changes will be seen only by you. Learn more »
launch autoscroll
font size
0
reset
guitar tuner
edit
Autoscroll
slow
fast
+/-
esc
set tempo
stop
Author
Difficulty
I do not understand why people are submitting tabs for this songs that are completely 
wrong, feature bizarre tuning for no reason( D# and dropped D for no reason) or are upside down.

Standard Tuning:


Intro / Verse

G|-----------------------------|
D|-1---------------------------|
A|-------2---------------------|
E|---------------4-------------|


Verse Variation / Prechorus:

G|------------------------------------------------------------|
D|-1--1--1--1-1-----------------------------------------------|
A|---------------1--1--1--1-1----------------4--4--4--4-4-----|
E|-----------------------------2--2--2--2-2-------------------|

Chorus

G|---------------------------------------------------------------------|
D|---------------------------------------------------------------------|
A|----------------------------------6-6-6-6-6-6-6-6--4-4-4-4-4-4-4-4---|
E|-2-2-2-2-2-2-2-2--4-4-4-4-4-4-4-4------------------------------------|

Outro (straight down......straight down.....)

G|--------------------------------------------------------------------|
D|--------------------------------------------------------------------|
A|-6-6-6-6-6-6-6-6--4-4-4-4-4-4-4-4-----------------------------------|
E|-----------------------------------2-2-2-2-2-2-2-2--4-4-4-4-4-4-4-4-|
Suggest correction
Creating personal tab
Creating personal tab
You can edit any tab online and save it as your Personal.

You can edit, replace or remove any tab part or add personal notes – all changes will be seen only by you.

Personal tabs can be accessed anytime from any device, even offline.
Learn more »
Give kudos to tab author, rate the tab!
1 2 3 4 5
comments
print report bad tab
1 comment total.
0 reply
BrittySixx 10 Dec 19, 2015 05:15 AM

Spot on! Though i think he plays this on a 5 string which would just drive it!

guest
You may want to rate the tab now too:
select rating
Wanna post a correction for this tab? Suggest correction