Oops, an error
Loading. Please wait.

From The Sea bass

version 1
version 1

Whole song

Interactive

1,441 views 3 this week
no commentswrite comment
1 2 3 4 5
2 more votes to show rating
add to favorites
×
Save as Personal and add changes to this tab that will be seen only by you. Learn more ›
×
You can save this tab as Personal to edit and correct it or add notes. All changes will be seen only by you. Learn more »
launch autoscroll
font size
0
reset
guitar tuner
edit
Autoscroll
slow
fast
+/-
esc
set tempo
stop
Author
Difficulty
-Intro/verse (play with second lot of drum beats)
G|------------------------------------------------------------------|
D|------------------------------------------------------------------|
A|----------------111-----------------------------111---------------|
E|222-----------------------------222-------------------------------|


Bridge - (its like a radar and it comes to you…)
G|------------------------------------------------------------------|
D|------------------------------------------------------------------|
A|-----------------111----1-----------------------------------------|
E|0222----0222----2--------444--------------------------------------|

Pre Chorus - (come in on “sea”)
G|------------------------------------------------------------------|
D|11111111------------------------11111111--------------------------|
A|----------------11111111------------------------------------------|
E|--------22222222--------44444444--------222222222-----------------|

Verse (come in just before “under pain”)
G|------------------------------------------------------------------|
D|------------------------------------------------------------------|
A|----------------111-----11-1--------------------111-----11-1------|
E|---------------4-------4----44-422-----0222----2-------4----44-4--|

Bridge (start playing straight after the 4 in the verse with no rest)
G|------------------------------------------------------------------|
D|------------------------------------------------------------------|
A|----------------111----1------------------------------------------|
E|22-----0222----2--------444---------------------------------------|

Pre Chorus - (come in on “seaaaaaaa”)
G|------------------------------------------------------------------|
D|11111111------------------------11111111--------------------------|
A|----------------11111111------------------------------------------|
E|--------22222222--------44444444----------------------------------|

Chorus
G|------------------------------------------------------------------|
D|---------------------1-------1-----------------------1-------1----|
A|1--11---4--44-----------44444---1--11---4--44-----------44444-----|
E|----------------2--22---------------------------2--22-------------|

Post chorus (only just beginning to know…)
G|------------------------------------------------------------------|
D|11111111--------11111111------------------------------------------|
A|------------------------------------------------------------------|
E|--------22222222--------222222222---------------------------------|

Intro (come in with drums)
G|------------------------------------------------------------------|
D|------------------------------------------------------------------|
A|----------------111-----------------------------------------------|
E|222---------------------------------------------------------------|

Verse (come in just before singing starts)
G|------------------------------------------------------------------|
D|------------------------------------------------------------------|
A|-----------------111-----11-1--------------------111-111-1--------|
E|0222----0222----2-------4----44-422-----0222----2---------44-444--|

Weird bit interlude (come in just before “seaaaaaa”)
G|------------------------------------------------------------------|
D|-1111111111111111-------------------------------------------------|
A|------------------------------------------------------------------|
E|4-----------------------------------------------------------------|

 
Chorus (play this 3 times)
G|------------------------------------------------------------------|
D|---------------------1-------1-----------------------1-------1----|
A|1--11---4--44-----------44444---1--11---4--44-----------44444-----|
E|----------------2--22---------------------------2--22-------------|

Post chorus/ending (come in on “only”)
G|------------------------------------------------------------------|
D|11111111--------11111111--------1111111---------------------------|
A|------------------------------------------------------------------|
E|--------22222222--------22222222-------2-2------------------------|

End of song

            
            
Suggest correction
Creating personal tab
Creating personal tab
You can edit any tab online and save it as your Personal.

You can edit, replace or remove any tab part or add personal notes – all changes will be seen only by you.

Personal tabs can be accessed anytime from any device, even offline.
Learn more »
Give kudos to tab author, rate the tab!
1 2 3 4 5
comments
print report bad tab
guest
You may want to rate the tab now too:
select rating
Wanna post a correction for this tab? Suggest correction