Oops, an error
Loading. Please wait.

Hey bass

613 views 3 this week
no commentswrite comment
1 2 3 4 5
2 more votes to show rating
add to favorites
×
Save as Personal and add changes to this tab that will be seen only by you. Learn more ›
×
You can save this tab as Personal to edit and correct it or add notes. All changes will be seen only by you. Learn more »
launch autoscroll
font size
0
reset
guitar tuner
edit
Autoscroll
slow
fast
+/-
esc
set tempo
stop
Author
Artist: Eskimo Joe
Song: Hey Performed for Triple J’s Like A Version
Album: Sarah - Single 
Tuning: D#ADG

I forgot to mention that this song was origanaly written by The Pixies and played by Kim Deal

Email: bhill2@eq.edu.au

Verse
"Been trying to meet you..."
1.
G |-------------------------------------------------------------|
D |-------------------------------------------------------------|
A |---------1-2~--2~--2-3-4-5~--5~--5---------------------------|
D#|-3~----6---------------------------1-3-4~--4~--4-1-2-3~--3~--|

"Must be a devil between us..."
2.
G |--------------------------------------------------------|
D |--------------------------------------------------------|
A |-----1-2~--2~--2-3-4-5~--5~--5--------------------------|x2
D#|-3-6---------------------------1-3-4~--4~--4-1-2-3~--3~-|

3.
G|-------------------------------------------------------------------------|
D|-------------------------------------------------------------------------|
A|-----1-2~--2~--2-3-4-5~--5~--5-----------------22222222------------------|
D#|-3-6---------------------------1-3-4~----1~------------44444444-11111111|

Chorus
"We're chained..."
4.
G |------------------------------------------------------------------------|
D |------------------------------------------------------------------------|
A |-22222222-------------------22222222-------------------22222222---------|
D#|----------44444444-11111111----------44444444-11111111---------33333333-|

5.
G |-------------------|
D |-------------------|
A |----------22222222-|
D#|-11111111----------|

6.
G |---------------------------------------------------------|
D |---------------------------------------------------------|
A |---------------------------1-2~--2~--2-3-4-5~--5~--5-----|x5
D#|-4~--4~--4-1-2-3~--3~--3-6---------------------------1-3-|

"Said the man to the lady..."
7.
G |---------------------------------------------------------|
D |---------------------------------------------------------|
A |---------------------------1-2~--2~--2-3-4-5~--5~--5-----|
D#|-4~--------1-2-3---------6---------------------------1-3-|

8.
G |---------------------------------------------------------|
D |---------------------------------------------------------|
A |---------------------------1-2~--2~--2-3-4-5~--5~--5-----|--x3
D#|-4~--4~--4-1-2-3~--3~--3-6---------------------------1-3-|



9.
G |----------------------------------------|
D |----------------------------------------|
A |-------------22222222-------------------|
D#|-4~----1~-------------44444444-11111111-|


Chorus
"We're chained..."
10.
G |------------------------------------------------------------------------|
D |------------------------------------------------------------------------|
A |-22222222-------------------22222222-------------------22222222---------|
D#|----------44444444-11111111----------44444444-11111111---------33333333-|

11.
G |--------------------------------------|
D |--------------------------------------|
A |-22222222-------------------2~--------|
D#|----------44444444-11111111-----------|

Lyrics:

Hey
Been trying to meet you
Hey
Must be a devil between us
Or whores in my head
Whores at the door
Whores in my bed
But hey, where have you been 
If you go I will surely die
We're chained

Uh said the man to the lady
Uh said the lady to the man she adored Him
And the whores like a choir
Go uh all night
And Mary ain't you tired of this
Uh is the sound
That the mother makes when the baby breaks
We're chained
Suggest correction
Creating personal tab
Creating personal tab
You can edit any tab online and save it as your Personal.

You can edit, replace or remove any tab part or add personal notes – all changes will be seen only by you.

Personal tabs can be accessed anytime from any device, even offline.
Learn more »
Give kudos to tab author, rate the tab!
1 2 3 4 5
comments
print report bad tab
guest
You may want to rate the tab now too:
select rating
Wanna post a correction for this tab? Suggest correction