Oops, an error
Loading. Please wait.

Sarah tab

version 1
version 1

Whole song

Interactive

4,405 views 3 this week
4 commentsread comments
1 2 3 4 5
x 5
add to favorites
×
Save as Personal and add changes to this tab that will be seen only by you. Learn more ›
×
You can save this tab as Personal to edit and correct it or add notes. All changes will be seen only by you. Learn more »
launch autoscroll
font size
0
reset
how to read this tab
guitar tuner
edit
Autoscroll
slow
fast
+/-
esc
set tempo
stop
Difficulty
intermediate
this is 100% correct i swear, i noticed ther wasnt one on hear so i thought i would 
any inquiries email me at skate_or_die124@hotmail.com

~= let it ring

INTRO
e------------------------------------------------------------|
b------------------------------------------------------------|
g------------------------------------------------------------|  x2
d-22222222--66666666--99x99999--66x66666---------------------|
a-22222222--66666666--99x99999--66x66666---------------------|
E-00000000--44444444--77x77777--44x44444---------------------|
.............................................palm mute
VERSE 1
e--------------------------------------------------------------|
b--------------------------------------------------------------|
g-11111111-----------------------------------------------------|  x2
d-22222222--66666666--99x99999--66x66666--9999999-8888888------|
a-22222222--66666666--99x99999--66x66666--7777777-6666666------|
E-----------44444444--77x77777--44x44444--0000000-0000000------|
            ......................................... palm mute
PRE-CHORUS
e---------------------------------------|
b---------------------------------------|
g---------------------------------------|
d-22-44----6~---------------------------|
a-22-22-44-4~---------------------------|
E-00----22------------------------------|

CHORUS
e----------------------------------------------------|
b----------------------------------------------------|
g----------------------------------------------------|
d-4~-----6-4-----------------------------------------| x2
a-2~-4~--4-2-4---------------------------------------|
E----2~------2---------------------------------------|

e-------------------------------------------------------|
b-------------------------------------------------------|
g-------------------------------------------------------|
d-2222--------2222---------2222--------22-22--88888888--|
a-2222--6666--2222--6666---2222--66-44-22-22--66666666--|
E-0000--4444--0000--4444---0000--44-22-00-00------------|

PLAYING ORDER:
intro
verse
pre-chorus
chorus
intro
verse
chorus
solo
chorus
solo
outro

i havent worked out solo yet but i will eventually
thnkZ heaps and this is my first tab so hope you like it

            
            
Suggest correction
Creating personal tab
Creating personal tab
You can edit any tab online and save it as your Personal.

You can edit, replace or remove any tab part or add personal notes – all changes will be seen only by you.

Personal tabs can be accessed anytime from any device, even offline.
Learn more »
comments
print report bad tab
4 comments total. Showing first comments.
0 reply
Grinspoon-Guy 41 Dec 10, 2006 03:50 PM

sweet tab it seems ok but its only the rhythmic stuff wheres the lead guitar....................?

0 reply
cheezwinkle 10 Dec 24, 2006 03:33 PM

it sounds right, need that solo though

0 reply
timo1 206 Jan 09, 2007 11:41 PM

nice tab there m8

guest
Wanna post a correction for this tab? Suggest correction