Oops, an error
Loading. Please wait.

Sarah bass

version 3
version 3

Whole song

Interactive

1,009 views 1 this week
2 commentsread comments
1 2 3 4 5
x 3
add to favorites
×
Save as Personal and add changes to this tab that will be seen only by you. Learn more ›
×
You can save this tab as Personal to edit and correct it or add notes. All changes will be seen only by you. Learn more »
launch autoscroll
font size
0
reset
guitar tuner
edit
Autoscroll
slow
fast
+/-
esc
set tempo
stop
Author
Song Title: Sarah
Band: Eskimo Joe
Album: Black Fingernails, Red Wine
Tuning: standard

i decided to tab this song because i always wanted to learn it on bass and never found 
tabs. the tab by abbbyyy69 helped me tab this, however it's far from correct. i'm pretty sure
this tab is 100% right, enjoy!

Verse: (0:15)

G|--------------------|
D|--------------------|
A|--------------------|
E|-0-0-0-0-0-0-0-0----|

G|--------------------------------------------------------------------|
D|-----------1-1---------6-6-4-4--------------------------------------|
A|-2-2---4-4-----4---------------4-7-7-7-7-7-7-6-4-6-6-6-6-6-6-6-6----|
E|-----------------4-4------------------------------------------------|

G|--------------------|
D|--------------------|
A|--------------------|
E|-0-0-0-0-0-0-0-0----|

G|--------------------------------------------------------------------|
D|-----------1-1---------6-6-4-4--------------------------------------|
A|-2-2---4-4-----4---------------4-7-7-7-7-7-7-6-4-6-6-6-6-6-6-6-6----|
E|-----------------4-4------------------------------------------------|

Pre Chorus (0:37)

G|--------------------------|
D|--------------------------|
A|-7-7---2-2---------4-4----|
E|-------------2-2----------|

Chorus (0:41)

G|--------------------------------------------------------------------|
D|--------------------------------------------------------------------|
A|-2-2-2-2-2-2-2-2-9-9-9-9-9-9-9-9-4-4-4-4-2-2-2-2--------------------|  X2
E|-------------------------------------------------2-2-2-2-2-2-2-2----|

G|--------------------------------------------------------------------|
D|--------------------------------------------------------------------|
A|--------------------------------------------------------------------|
E|-0-0-0-0-0-0-0-0-4-4-4-4-4-4-4-4-0-0-0-0-0-0-0-0-4-4-4-4-4-4-4-4----|

G|--------------------------------------------------------------------|
D|--------------------------------------------------------------------|
A|-------------------------------------------------6-6-6-6-6-6-6-6-7--|
E|-0-0-0-0-0-0-0-0-4-4------2-2----0-0-0-0-0-0-0-0--------------------|

let the last note of the chrous (E, 7 on A string) ring into the start of the second 
(listen to song)

Verse: (1:17)

G|--------------------|
D|--------------------|
A|--------------------|
E|-0-0-0-0-0-0-0-0----|

G|--------------------------------------------------------------------|
D|-----------1-1---------6-6-4-4--------------------------------------|
A|-2-2---4-4-----4---------------4-7-7-7-7-7-7-6-4-6-6-6-6-6-6-6-6----|
E|-----------------4-4------------------------------------------------|

G|--------------------|
D|--------------------|
A|--------------------|
E|-0-0-0-0-0-0-0-0----|

G|--------------------------------------------------------------------|
D|-----------1-1---------6-6-4-4--------------------------------------|
A|-2-2---4-4-----4---------------4-7-7-7-7-7-7-6-4-6-6-6-6-6-6-6-6----|
E|-----------------4-4------------------------------------------------|

Pre Chorus (1:40)

G|--------------------------|
D|--------------------------|
A|-7-7---2-2---------4-4----|
E|-------------2-2----------|

Chorus (1:43)

G|--------------------------------------------------------------------|
D|--------------------------------------------------------------------|
A|-2-2-2-2-2-2-2-2-9-9-9-9-9-9-9-9-4-4-4-4-2-2-2-2--------------------|  X2
E|-------------------------------------------------2-2-2-2-2-2-2-2----|

G|--------------------------------------------------------------------|
D|--------------------------------------------------------------------|
A|--------------------------------------------------------------------|
E|-0-0-0-0-0-0-0-0-4-4-4-4-4-4-4-4-0-0-0-0-0-0-0-0-4-4-4-4-4-4-4-4----|

G|--------------------------------------------------------------------|
D|--------------------------------------------------------------------|
A|-------------------------------------------------6-6-6-6-6-6-6-6----|
E|-0-0-0-0-0-0-0-0-4-4------2-2----0-0-0-0-0-0-0-0--------------------|

INterlude: (2:13)

G|--------------------------------------------------------------------|
D|--------------------------------------------------------------------|
A|---------------------------------6-6-6-6-6-6-6-6-6-6-6-6-6-6-6-6----|
E|-4-4-4-4-4-4-4-4-4-4-4-4-4-4-4-4------------------------------------|

G|--------------------------------------------------------------------|
D|--------------------------------------------------------------------|
A|-2-2-2-2-2-2-2-2-2-2-2-2-2-2-2-2-4-4-4-4-4-4-4-4-4-4-4-4-4-4-4-4----|
E|--------------------------------------------------------------------|


G|--------------------------------------------------------------------|
D|-6-6-6-6-6-6-6-6-6-6-6-6-6-6-6-6------------------------------------|
A|---------------------------------6-6-6-6-6-6-6-6-6-6-6-6-6-6-6-6----|
E|-----------------------------------------------------------------7--|

let the last note of the Interlude (B, 7 on E string) ring into the start of the third 
(listen to song)

Chorus (2:50)

G|--------------------------------------------------------------------|
D|--------------------------------------------------------------------|
A|--------------------------------------------------------------------|
E|-0-0-0-0-0-0-0-0-4-4-4-4-4-4-4-4-0-0-0-0-0-0-0-0-4-4-4-4-4-4-4-4----|

G|--------------------------------------------------------------------|
D|--------------------------------------------------------------------|
A|-------------------------------------------------6-6-6-6-6-6-6-6----|
E|-0-0-0-0-0-0-0-0-4-4------2-2----0-0-0-0-0-0-0-0--------------------|


Outro: (3:05)

G|------------------------------------|
D|------------------------------------|
A|-7-7-7-7-7-7-7-7-6-6-6-6-6-6-6-6----| X 4
E|------------------------------------|

End Note: (3:19)

G|------|
D|------|
A|-7~~~~|
E|------|

feel free to RATE and COMMENT this tab! or email me with questions: tasman_strachan@hotmail.com

            
            
Suggest correction
Creating personal tab
Creating personal tab
You can edit any tab online and save it as your Personal.

You can edit, replace or remove any tab part or add personal notes – all changes will be seen only by you.

Personal tabs can be accessed anytime from any device, even offline.
Learn more »
Give kudos to tab author, rate the tab!
1 2 3 4 5
comments
print report bad tab
2 comments total.
0 reply
MuDvAyNe_rOcKs 10 Mar 11, 2007 08:57 PM

great tab man. the verses go like this tho

G|-----------------------------------------------------|
D|----------------------6644---------------------------|
A|--------------4-66-4------47777776466666666----------|
E|--44444444/77-------44----------------------00000000-|

other then that everything else is perfect. 4*

0 reply
delo-E.W.A.F. 72 Sep 14, 2007 04:21 PM

very hard to follow

guest
You may want to rate the tab now too:
select rating
Wanna post a correction for this tab? Suggest correction