Oops, an error
Loading. Please wait.

Dont Rely On Anyone Bass Tab

275 views 1 this week
3 commentsread comments
1 2 3 4 5
3 more votes to show rating
add to favorites
launch autoscroll
font size
0
reset
guitar tuner
Autoscroll
slow
fast
+/-
esc
set tempo
stop
Help us to improve Ultimate-Guitar.com Take our survey!
×
Author
Difficulty
Tuning
novice
D A D G B E
EsOterica - Don't Rely On Anyone
Tuning: BEADG/DADG

Basicall EsOterica's current bassist plays with five strings BUT in the
video for DROA the bassist plays with four strings. Now I was slightly
confused on what to tab out so I did you all a favour and did both. With
love, Craig. (any comments go to craig-bass1995@hotmail.co.uk)

(5-String)
Intro:
G|-------------------------|
D|-------------------------|
A|-------------------------|
E|-6-66-66-666--6-66-66-666|
B|-------------------------|

Verse:
G|-------------------------|
D|-------------------------|
A|-------------------------|
E|-6-66-66-666--6-66-66-666|
B|-------------------------|

Bridge:  (We Won't be stopped...)
G|-------------------------------------------------------|
D|-------------------------------------------------------|
A|-------------------------------------------------------|
E|-6-66-66-----------------2-22-22-6-66-66-2-22-22-1-----|
B|---------2-22-22-4-44-44-------------------------------|

Chorus:
G|---------------------------------|
D|---------------------------------|
A|---------------------------------|
E|-6--66--66--66----6--66--66--66--|
B|---------------------------------|


(4-String)
Intro:
G|-------------------------|
D|-------------------------|
A|-------------------------|
D|-8-88-88-888--8-88-88-888|

Verse:
G|-------------------------|
D|-------------------------|
A|-------------------------|
D|-6-66-66-666--6-66-66-666|

Bridge:  (We Won't be stopped...)
G|-------------------------------------------------------|
D|-------------------------------------------------------|
A|---------4-44-44-6-66-66-------------------------------|
D|-8-88-88-----------------4-44-44-8-88-88-4-44-44-3-----|

Chorus:
G|---------------------------------|
D|---------------------------------|
A|---------------------------------|
D|-8--88--88--88----8--88--88--88--|

I hope this is enough to get you playing. Enjoy!
Suggest correction
Give kudos to tab author, rate the tab!
1 2 3 4 5
comments
print report bad tab
3 comments total.
0 reply
the bayliff 743 Apr 14, 2011 04:49 PM

Hate to say it, but it's wrong. esOterica play in drop Bb
I made the same mistake, I tabbed DROA guitar in Drop D too :(

0 reply
the bayliff 743 Apr 14, 2011 04:50 PM

Disregard my previous comment. I didn't clock the low B string

FACEPALM!

0 reply
Craig-Bass1995 177 Apr 20, 2011 07:35 AM

Haha! It's alright, man. I know they play in Bb, but this song can be played in drop-D. It makes it easier for the people who only have four strings, so that they don't have to tune down stupidly low. :L

guest
You may want to rate the tab now too:
select rating
Wanna post a correction for this tab? Suggest correction