Oops, an error
Loading. Please wait.

Hallelujah tab

version 1
version 1

Whole song

Interactive

15,929 views 3 this week
no commentswrite comment
1 2 3 4 5
x 10
add to favorites
×
Save as Personal and add changes to this tab that will be seen only by you. Learn more ›
×
You can save this tab as Personal to edit and correct it or add notes. All changes will be seen only by you. Learn more »
launch autoscroll
font size
0
reset
how to read this tab
guitar tuner
edit
Autoscroll
slow
fast
+/-
esc
set tempo
stop
Author
Difficulty
Hey guys!Here's the tab for Lind's,Holm's,Fuentes' and Kurt Nilsen's cover version of 
wonderful song named Hallelujah(Originally by Leonard Cohen).Here's the song if you're 
what im talking about---> http://www.youtube.com/watch?v=T2NEU6Xf7lM

It may look complicated but it's quite easy if you know your chord shapes.You'll get the 
of it don't worry!.I've tried my best to get every sound onto this so have fun and enjoy!

MyuziQ


Song:Hallelujah
Band/Group:(Covered by)Espen Lind,Askil Holm,Alejandro Fuentes,Kurt Nilsen

Tuning:EADGBe(Standard)


***CAPO ON 5th FRET***


INTRO

   G                 Em7               G                  Em7
|-----------3-----------------3------------------3-----------------3---------|
|-----------3-----------------3------------------3-----------------3---------|
|--------0-----0-----------0-----0------------------0-----------0-----0------|
|-----0-----------------2--------------------0---------------2---------------|
|----------------------------------------0h2---------------------------------|
|--3--------------2--0--------------2--3---------------2--0------------------|


VERSE 1

     G                 Em7               G                  Em7
|-------------3-----------------3------------------3-----------------3-------|
|-------------3-----------------3------------------3-----------------3-------|
|----------0-----0-----------0-----0------------------0-----------0-----0----|
|-------0-----------------2--------------------0---------------2-------------|
|------------------------------------------0h2-------------------------------|
|-2--3--------------2--0--------------2--3---------------2--0----------------|

     C                          D         G                D
|-------------3--------3--------0h2-------3-------3--------0h1-------1-------|
|-------------3--------3--------3---------3-------3--------3---------3-------|
|----------0-----0--------0---------2--------0-------0---------2--------2----|
|-------2-----------2--------2--0------0-------------------0------0--0-----0-|
|--2-3-----------------3-----------------------------------------------------|
|-----------------------------------------3-----3-3-----3--------------------|

~~~

   G                C        D        Em               C
|--3-------3--------0--------2--------3--------3-------3-------3---------|
|--3-------3--------1--------3--------3--------3-------3-------3---------|
|-----0-------0--------0--------2--------0--------0-------0-------0------|
|-------------------------2--0-----0-------------------------------------|
|-------------------3--------------------------------2-3-----3-------3---|
|--3-----3-3-----3--------------------0-----0----------------------------|

   D                 B7                Em
|--2--------2--------2--------2--------0--------0--------0---|
|--3--------3--------0--------0--------0--------0--------0---|
|-----2--------2--------2--------2--------0--------0---------|
|--0-----0--0-----0--------1--------1--------2---------------|
|--------------------2--------2------------------------------|
|--------------------------------------0---------------0-0---|


CHORUS 1

   C                                   Em
|-----------3-----------------3-----------------3------2-------0--------|
|-----------3-----------------3-----------------3------3-------3--------|
|--------0-----0-----------0-----0-----------------0-----0--------0-----|
|-----2-----------2-----2-----------2--------2--------------------------|
|--3-----------------3--------------------2--------------------------2--|
|--------------------------------------0--------------------0-----------|

   C                                    G                 D
|-----------3------------------3-----------------3-----------------0h2--------|
|-----------3---------------3-----3-----------3-----3-----------3-------3-----|
|--------0-----0---------0-----------0-----0-----------0-----2-------------2--|
|-----2-------------0h2-----------------------------------0-------------------|
|--3--------------------------------------------------------------------------|
|---------------------------------------3-------------------------------------|


PRELUDE 1

   G                 Em7               G                  Em7
|-----------3-----------------3------------------3-------------------3---------|
|-----------3-----------------3------------------3-------------------3---------|
|--------0-----0-----------0-----0------------------0-------------0-----0------|
|-----0-----------------2--------------------0---------------0h2---------------|
|----------------------------------------0h2-----------------------------------|
|--3--------------2--0--------------2--3---------------2--0--------------------|


VERSE 2

     G                  Em7               G                  Em7
|--------------3-----------------3------------------3-----------------3-------|
|--------------3-----------------3------------------3-----------------3-------|
|-----------0-----0-----------0-----0------------------0-----------0-----0----|
|--------0-----------------2--------------------0---------------2-------------|
|-------------------------------------------0h2-------------------------------|
|--2--3--------------2--0--------------2--3---------------2--0----------------|

     C                          D         G                D
|-------------3--------3--------0h2-------3-------3--------0h1-------1-------|
|-------------3--------3--------3---------3-------3--------3---------3-------|
|----------0-----0--------0---------2--------0-------0---------2--------2----|
|-------2-----------2--------2--0------0-------------------0------0--0-----0-|
|--2-3-----------------3-----------------------------------------------------|
|-----------------------------------------3-----3-3-----3--------------------|

~~~

   G                C        D        Em               C
|--3-------3--------0--------2--------3--------3-------3-------3---------|
|--3-------3--------1--------3--------3--------3-------3-------3---------|
|-----0-------0--------0--------2--------0--------0-------0-------0------|
|-------------------------2--0-----0-------------------------------------|
|-------------------3--------------------------------2-3-----3-------3---|
|--3-----3-3-----3--------------------0-----0----------------------------|

   D                 B7                Em
|--2--------2--------2--------2--------0--------0------0--0---|
|--3--------3--------0--------0--------0------------0---------|
|-----2--------2--------2--------2--------0------------0--0---|
|--0-----0--0-----0--------1--------1--------2------0---------|
|--------------------2--------2-----------------0h2-----------|
|--------------------------------------0----------------------|


CHORUS 2

   C                                    Em
|-----------3------------------3-----------------3------2--------0---------|
|-----------3---------------3-----3--------------3------3--------3---------|
|--------0-----0---------0-----------0--------------0------0--------0------|
|-----2-------------0h2-----------------------2----------------------------|
|--3---------------------------------------2---------------------------2---|
|---------------------------------------0---------------------0------------|

   C                                    G                 D
|-----------3------------------3-----------------3-----------------2h3p2---------|
|-----------3---------------3-----3-----------3-----3-----------3---------3------|
|--------0-----0---------0-----------0-----0-----------0-----2---------------2---|
|-----2-------------0h2-----------------------------------0----------------------|
|--3-----------------------------------------------------------------------------|
|---------------------------------------3----------------------------------------|


PRELUDE 2

   G                 Em7                 G                  Em7
|-----------3-------------------3------------------3-------------------3------|
|-----------3-------------------3------------------3-------------------3------|
|--------0-----0-------------0-----0------------------0-------------0-----0---|
|-----0-----------------0h2---------------------0--------------0h2------------|
|-------------------------------------------0h2-------------------------------|
|--3--------------2--0----------------2--3---------------2--0-----------------|


VERSE 3

     G                 Em7               G                 Em7
|--------------3-----------------3-----------------3-----------------3-------|
|--------------3-----------------3-----------------3-----------------3-------|
|-----------0-----0-----------0-----0-----------------0-----------0-----0----|
|--------0-----------------2-------------------0---------------2-------------|
|-------------------------------------------0--------------------------------|
|--2--3--------------2--0--------------2--3--------------2--0----------------|

     C                            D         G                D
|---------------3--------3--------0h2-------3-------3--------0h1-------1-------|
|---------------3--------3--------3---------3-------3--------3---------3-------|
|------------0-----0--------0---------2--------0-------0---------2--------2----|
|-------0h2-----------2--------2--0------0-------------------0------0--0-----0-|
|--2-3-------------------3-----------------------------------------------------|
|-------------------------------------------3-----3-3-----3--------------------|

~~~

   G               C        D        Em               C
|--3-------3-------0--------2--------3--------3-------3-------3---------|
|--3-------3-------1--------3--------3--------3-------3-------3---------|
|-----0-------0-------0--------2--------0--------0-------0-------0------|
|------------------------2--0-----0-------------------------------------|
|------------------3--------------------------------2-3-----3-------3---|
|--3-----3-3-----3-------------------0-----0----------------------------|

   D                 B7                Em
|--2--------2--------2--------2--------0--------0--------0---|
|--3--------3--------0--------0--------0--------0--------0---|
|-----2--------2--------2--------2--------0--------0---------|
|--0-----0--0-----0--------1--------1--------2---------------|
|--------------------2--------2------------------------------|
|--------------------------------------0---------------0-0---|


CHORUS 3

   C                                   Em
|-----------3-----------------3-----------------3------2-------0--------|
|-----------3-----------------3-----------------3------3-------3--------|
|--------0-----0-----------0-----0-----------------0-----0--------0-----|
|-----2-----------2-----2-----------2--------2--------------------------|
|--3-----------------3--------------------2--------------------------2--|
|--------------------------------------0--------------------0-----------|

   C                                    G                 D
|-----------3------------------3-----------------3-----------------0h2--------|
|-----------3---------------3-----3-----------3-----------------3-------3-----|
|--------0-----0---------0-----------0-----0-----------------2-------------2--|
|-----2-------------0h2-------------------------------------------------------|
|--3------------------------------------------------3--2--0-------------------|
|---------------------------------------3-------------------------------------|

FINISHING VERSE/OUTRO(VOCAL SOLOS)

|-----------3-----------------------------------3--------2--------0---------|
|-----------3--------------0--------0-----------3--------3--------3---------|
|--------0-----0--------0--------0-----------------0--------0--------0------|
|-----2--------------------------------------2------------------------------|
|--3--------------3--2--------0-----------2-----------------------------2---|
|--------------------------------------0--------------0--------0------------|

|-------------3-------------------3---------|
|-------------3----------------3-----3------|
|----------0-----0----------0-----------0---|
|-----0h2-----------2--0h2------------------|
|--3----------------------------------------|
|-------------------------------------------|

(KURT AND ESPEN'S HARMONISING SOLO)
|-----------3-----------------3-----------------2--------2h3----------3--3p2------|
|--------3-----3-----------3-----3-----------3-----3----------2------------3------|
|-----0-----------0-----0-----------0-----2-----------2----------3------------2---|
|--------------------------------------0------------------------------------------|
|---------------------------------------------------------------------------------|
|--3-----------------3------------------------------------------------------------|

|--3--------3--------------------------------------------3---|
|--3-----------3-----------3--------3-----------3-----3--3---|
|-----0-----------0-----0--------0-----------0-----0-----0---|
|-----------------------------------------2------------------|
|--3-----3-----------2--------0------------------------------|
|--------------------------------------0---------------------|

~~
   C                D               G
|--0~---------------2~-------------------------------|
|--1~---------------3~--------------3~---------------|
|--0~---------------2~--------------0~---------------|
|--2~---------------0~--------------0~---------------|
|--3~-------------------------------2~---------------|
|----------------------------------------------------|

            
            
Suggest correction
Creating personal tab
Creating personal tab
You can edit any tab online and save it as your Personal.

You can edit, replace or remove any tab part or add personal notes – all changes will be seen only by you.

Personal tabs can be accessed anytime from any device, even offline.
Learn more »
comments
print report bad tab
guest
You may want to rate the tab now too:
select rating
Wanna post a correction for this tab? Suggest correction