Oops, an error
Loading. Please wait.

The Hunter bass

version 1
version 1

Whole song

Interactive

19 views 1 this week
no commentswrite comment
1 2 3 4 5
2 more votes to show rating
add to favorites
×
Save as Personal and add changes to this tab that will be seen only by you. Learn more ›
×
You can save this tab as Personal to edit and correct it or add notes. All changes will be seen only by you. Learn more »
launch autoscroll
font size
0
reset
guitar tuner
edit
Autoscroll
slow
fast
+/-
esc
set tempo
stop
Title: The Hunter
Artist: Esprit D'Air
Album: The Hunter
Music: Esprit D'Air
Copyright: Esprit D'Air
Tempo = 190

Intro
F#|----------------------------|----------------------------|
C#|----------------------------|----------------------------|
G#|----------------------------|----------------------------|
C#|--1--0--2--3--1--0--1--0----|--2--3--1--0--1--0--2--3----|


----------------------------|-------|----------------------------|
----------------------------|-------|----------------------------|
----------------------------|-------|----------------------------|
--1--0--2--3--1--0--1--0----|-------|--1-----0--1-----0--1-------|


----------------------------|----------------------------|
----------------------------|----------------------------|
----------------------------|----------------------------|
--0--1-----0--1-----0--1L---|--1--0--1-----0--1-----0----|


----------------------------|----------------------------|
----------------------------|----------------------------|
----------------------------|----------------------------|
--1-----0--0--0--0--1-------|--1-----0--1-----0--1-------|


----------------------------|----------------------------|
----------------------------|----------------------------|
----------------------------|----------------------------|
--0--1-----0--1-----0--1L---|--1--0--1-----0--1-----0----|


----------------------------|----------------------------|
----------------------------|----------------------------|
----------------------------|----------------------------|
--1-----0--0--0--0--1-------|--1--1--0--1--1--0--1--1----|


----------------------------|----------------------------|
----------------------------|----------------------------|
----------------------------|----------------------------|
--0--1--1--0--1--1--0--1----|--1--0--1--1--0--1--1--0----|


----------------------------|----------------------------|
----------------------------|----------------------------|
--3-------------------------|----------------------------|
--------0--0--0--0--1-------|--1--1--0--1--1--0--1--1----|


----------------------------|----------------------------|
----------------------------|----------------------------|
----------------------------|----------------------------|
--0--1--1--0--1--1--0--1----|--1--0--1--1--0--1--1--0----|


----------------------------|----------------------------|
----------------------------|----------------------------|
--5-------------------------|----------------------------|
--------0--0--0--0--1-------|--1--0--2--3--1--0--1--0----|


----------------------------|----------------------------|
----------------------------|----------------------------|
----------------------------|----------------------------|
--2--3--1--0--1--0--2--3----|--1--0--2--3--1--0--1--0----|


----------------------------|----------------------------|
----------------------------|----------------------------|
----------------------------|----------------------------|
--2--3--1--0--1--0--2--3----|--1--0--2--3--1--0--1--0----|


----------------------------|----------------------------|----------------|
----------------------------|----------------------------|----------------|
----------------------------|----------------------------|----------------|
--2--3--1--0--1--0--2--3----|--1--0--2--3--1--0--1--0----|--0-------------|

Chorus
-------------|-------------|----------------------|----------------------|
-------------|-------------|----------------------|----------------------|
-------------|-------------|----------------------|----------------------|
--5--5--5----|--5--5--5----|--7--7--7--7--7--7----|--7--3--3--3--3--3----|


----------------------|----------------------|----------------------|
----------------------|----------------------|----------------------|
----------------------|----------------------|----------------------|
--1-----1--1--1--1----|--1-----1--1--1--1----|--1-----1--1--1--1----|


----------------------|-------------|-------------|----------------------|
----------------------|-------------|-------------|----------------------|
----------------------|-------------|-------------|--3--3--3--3--3--3----|
--1s-3--3--3--3--3----|--5--5--5----|--5--5--5----|----------------------|


----------------------|----------------------|----------------------|
----------------------|----------------------|----------------------|
--3--5--5--5--5--5----|----------------------|----------------------|
----------------------|--1-----1--1--1--1----|--1-----1--1--1--1----|


----------------------|----------------------|----------------------|
----------------------|----------------------|----------------------|
----------------------|----------------------|----------------------|
--3--3--3--3--3--3s---|--15-15-15-15-15-15---|--5--5--5--5--5--5----|


----------------------|----------------------|----------------------|
----------------------|----------------------|----------------------|
----------------------|----------------------|----------------------|
--5--5--5--5--5--5----|--7--7--7--7--7--7----|--7--3--3--3--3--3----|


----------------------|----------------------|----------------------|
----------------------|----------------------|----------------------|
----------------------|----------------------|----------------------|
--1-----1--1--1--1----|--1-----1--1--1--1----|--1-----1--1--1--1----|


----------------------|----------------------|----------------------|
----------------------|----------------------|----------------------|
----------------------|----------------------|----------------------|
--1s-3--3--3--3--3----|--5--5--5--5--5--5----|--5--5--5--5--5--5----|


----------------------|----------------------|----------------------|
----------------------|----------------------|----------------------|
--3--3--3--3--3--3----|--3s-5--5--5--5--5----|----------------------|
----------------------|----------------------|--1-----1--1--1--1----|


----------------------|----------------------|----------------------|----------|
----------------------|----------------------|----------------------|----------|
----------------------|----------------------|----------------------|----------|
--1-----1--1--1--1----|--3--3--3--3--3--3s---|--15-15-15-15-15-15---|--1--1----|


----------|----------|-------------|----------|----------|-------------|
----------|----------|-------------|----------|----------|-------------|
----------|----------|-------------|----------|----------|--1--1--1----|
--1--1----|--1--1----|--3--3--0----|--1--1----|--1--1----|-------------|

                       Verse
----------------------|----------------------|----------------------|
----------------------|----------------------|----------------------|
----------------------|----------------------|----------------------|
--3--3--3--3--3--3----|--5--5--5--5--5--5----|--5--5--5--5--5--5----|


----------------------|----------------------|----------------------|
----------------------|----------------------|----------------------|
----------------------|----------------------|----------------------|
--3--3--3--3--3--3----|--0--0--0--0--0--0----|--1--1--1--1--1--1----|


----------------------|----------------------|----------------------|
----------------------|----------------------|----------------------|
----------------------|----------------------|----------------------|
--1--1--1--1--1--1----|--3--3--3--3--3--3----|--3--3--3--3--3--3----|


----------------------|----------------------|----------------------|
----------------------|----------------------|----------------------|
----------------------|----------------------|----------------------|
--5--5--5--5--5--5----|--5--5--5--5--5--5----|--3--3--3--3--3--3----|


----------------------|----------------------|----------------------|
----------------------|----------------------|----------------------|
----------------------|----------------------|----------------------|
--0--0--0--0--0--0----|--1--1--1--1--1--1----|--1--1--1--1--1--1----|


----------------------|----------------------|
----------------------|----------------------|
----------------------|----------------------|
--3--3--3--3--3--3----|--3--3--3--3--3--3----|

Prechorus
----------------------------------------|----------------------|
----------------------------------------|----------------------|
----------------------------------------|----------------------|
--5--5--5--5--5--5--5-------------------|--5--5--5--5--5--5----|


----------------------|----------------------------------------|
----------------------|----------------------------------------|
----------------------|----------------------------------------|
--3--3--3--3----------|--0--0--0--0--0--0--0--0--0--0--0--0----|


----------------------|----------------------|----------------------|
----------------------|----------------------|----------------------|
----------------------|----------------------|----------------------|
--1--1--1--1----------|--1--1--1--1--1--1----|--3--3--3--3----------|


----------------------|----------------------------------------|
----------------------|----------------------------------------|
----------------------|----------------------------------------|
--3--3--3--3--3--3----|--5--5--5--5--5--5--5-------------------|


----------------------|----------------------|
----------------------|----------------------|
----------------------|----------------------|
--5--5--5--5--5--5----|--3--3--3--3----------|


----------------------------------------|----------------------|
----------------------------------------|----------------------|
----------------------------------------|----------------------|
--0--0--0--0--0--0--0--0--0--0--0--0----|--1--1--1--1----------|


----------------------|----------------------|----------------------|
----------------------|----------------------|----------------------|
----------------------|----------------------|----------------------|
--1--1--1--1--1--1----|--3--3--3--3----------|--3--3--3--3--3--3----|

Chorus
----------------------|----------------------|----------------------|
----------------------|----------------------|----------------------|
----------------------|----------------------|----------------------|
--5--5--5--5--5--5----|--5--5--5--5--5--5----|--7--7--7--7--7--7----|


----------------------|----------------------|----------------------|
----------------------|----------------------|----------------------|
----------------------|----------------------|----------------------|
--7--3--3--3--3--3----|--1-----1--1--1--1----|--1-----1--1--1--1----|


----------------------|----------------------|----------------------|
----------------------|----------------------|----------------------|
----------------------|----------------------|----------------------|
--1-----1--1--1--1----|--1s-3--3--3--3--3----|--5--5--5--5--5--5----|


----------------------|----------------------|----------------------|
----------------------|----------------------|----------------------|
----------------------|--3--3--3--3--3--3----|--3s-5--5--5--5--5----|
--5--5--5--5--5--5----|----------------------|----------------------|


----------------------|----------------------|----------------------|
----------------------|----------------------|----------------------|
----------------------|----------------------|----------------------|
--1-----1--1--1--1----|--1-----1--1--1--1----|--3--3--3--3--3--3s---|


----------------------|-------------|-------------|----------------------|
----------------------|-------------|-------------|----------------------|
----------------------|-------------|-------------|----------------------|
--15-15-15-15-15-15---|--5--5--5----|--5--5--5----|--7--7--7--7--7--7----|


----------------------|----------------------|----------------------|
----------------------|----------------------|----------------------|
----------------------|----------------------|----------------------|
--7--3--3--3--3--3----|--1-----1--1--1--1----|--1-----1--1--1--1----|


----------------------|----------------------|-------------|-------------|
----------------------|----------------------|-------------|-------------|
----------------------|----------------------|-------------|-------------|
--1-----1--1--1--1----|--1s-3--3--3--3--3----|--5--5--5----|--5--5--5----|


----------------------|----------------------|----------------------|
----------------------|----------------------|----------------------|
--3--3--3--3--3--3----|--3--5--5--5--5--5----|----------------------|
----------------------|----------------------|--1-----1--1--1--1----|


----------------------|----------------------|----------------------|
----------------------|----------------------|----------------------|
----------------------|----------------------|----------------------|
--1-----1--1--1--1----|--3--3--3--3--3--3s---|--15-15-15-15-15-15---|

Verse
----------------------|----------------------|----------------------|
----------------------|----------------------|----------------------|
----------------------|----------------------|----------------------|
--5--5--5--5--5--5----|--5--5--5--5--5--5----|--3--3--3--3--3--3----|


----------------------|----------------------|----------------------|
----------------------|----------------------|----------------------|
----------------------|----------------------|----------------------|
--0--0--0--0--0--0----|--1--1--1--1--1--1----|--1--1--1--1--1--1----|


----------------------|----------------------|----------------------|
----------------------|----------------------|----------------------|
----------------------|----------------------|----------------------|
--3--3--3--3--3--3----|--3--3--3--3--3--3----|--5--5--5--5--5--5----|


----------------------|----------------------|----------------------|
----------------------|----------------------|----------------------|
----------------------|----------------------|----------------------|
--5--5--5--5--5--5----|--3--3--3--3--3--3----|--0--0--0--0--0--0----|


----------------------|----------------------|----------------------|
----------------------|----------------------|----------------------|
----------------------|----------------------|----------------------|
--1--1--1--1--1--1----|--1--1--1--1--1--1----|--3--3--3--3--3--3----|


----------------------|----------------------------------------|
----------------------|----------------------------------------|
----------------------|----------------------------------------|
--3--3--3--3--3--3----|--5--5--5--5--5--5--5-------------------|


----------------------|----------------------|
----------------------|----------------------|
----------------------|----------------------|
--5--5--5--5--5--5----|--3--3--3--3----------|


----------------------------------------|----------------------|
----------------------------------------|----------------------|
----------------------------------------|----------------------|
--0--0--0--0--0--0--0--0--0--0--0--0----|--1--1--1--1----------|


----------------------|----------------------|----------------------|
----------------------|----------------------|----------------------|
----------------------|----------------------|----------------------|
--1--1--1--1--1--1----|--3--3--3--3----------|--3--3--3--3--3--3----|

Prechorus
----------------------------------------|----------------------|
----------------------------------------|----------------------|
----------------------------------------|----------------------|
--5--5--5--5--5--5--5-------------------|--5--5--5--5--5--5----|


----------------------|----------------------------------------|
----------------------|----------------------------------------|
----------------------|----------------------------------------|
--3--3--3--3----------|--0--0--0--0--0--0--0--0--0--0--0--0----|


----------------------|----------------------|----------------------|
----------------------|----------------------|----------------------|
----------------------|----------------------|----------------------|
--1--1--1--1----------|--1--1--1--1--1--1----|--3--3--3--3----------|

                       Break
----------------------|-------|-------|----------|-------------|----------|
----------------------|-------|-------|----------|-------------|----------|
----------------------|-------|-------|----------|-------------|----------|
--3--3--3--3--3--3----|--1----|--1----|--1--1----|--3--3--0----|--1--1----|
                                                 
                                                Chorus
----------|-------------|----------------------|----------------------|
----------|-------------|----------------------|----------------------|
----------|--1--1--1----|----------------------|----------------------|
--1--1----|-------------|--3--3--3--3--3-------|--5--5--5--5--5--5----|


----------------------|----------------------|----------------------|
----------------------|----------------------|----------------------|
----------------------|----------------------|----------------------|
--5--5--5--5--5--5----|--7--7--7--7--7--7----|--7--3--3--3--3--3----|


----------------------|----------------------|----------------------|
----------------------|----------------------|----------------------|
----------------------|----------------------|----------------------|
--1-----1--1--1--1----|--1-----1--1--1--1----|--1-----1--1--1--1----|


----------------------|----------------------|----------------------|
----------------------|----------------------|----------------------|
----------------------|----------------------|----------------------|
--1s-3--3--3--3--3----|--5--5--5--5--5--5----|--5--5--5--5--5--5----|


----------------------|----------------------|----------------------|
----------------------|----------------------|----------------------|
--3--3--3--3--3--3----|--3s-5--5--5--5--5----|----------------------|
----------------------|----------------------|--1-----1--1--1--1----|


----------------------|----------------------|----------------------|
----------------------|----------------------|----------------------|
----------------------|----------------------|----------------------|
--1-----1--1--1--1----|--3--3--3--3--3--3s---|--15-15-15-15-15-15---|


-------------|-------------|----------------------|----------------------|
-------------|-------------|----------------------|----------------------|
-------------|-------------|----------------------|----------------------|
--5--5--5----|--5--5--5----|--7--7--7--7--7--7----|--7--3--3--3--3--3----|


----------------------|----------------------|----------------------|
----------------------|----------------------|----------------------|
----------------------|----------------------|----------------------|
--1-----1--1--1--1----|--1-----1--1--1--1----|--1-----1--1--1--1----|


----------------------|-------------|-------------|----------------------|
----------------------|-------------|-------------|----------------------|
----------------------|-------------|-------------|--3--3--3--3--3--3----|
--1s-3--3--3--3--3----|--5--5--5----|--5--5--5----|----------------------|


----------------------|----------------------|----------------------|
----------------------|----------------------|----------------------|
--3--5--5--5--5--5----|----------------------|----------------------|
----------------------|--1-----1--1--1--1----|--1-----1--1--1--1----|

                        
----------------------|----------------------|-------|-------|-------|-------|
----------------------|----------------------|-------|-------|-------|-------|
----------------------|----------------------|-------|-------|-------|-------|
--3--3--3--3--3--3s---|--15-15-15-15-15-15---|--5L---|--5L---|--5L---|--5L---|

                Quiet section                              
-------|-------|----|----|----|----|----|----|-------|-------|-------|-------|
-------|-------|----|----|----|----|----|----|--1L---|--1L---|--1L---|--1----|
-------|-------|----|----|----|----|----|----|-------|-------|-------|-------|
--5L---|--5----|----|----|----|----|----|----|-------|-------|-------|-------|


-------|-------|-------|-------|-------|-------|-------|-------|-------|-------|
--3L---|--3L---|--3L---|--3----|-------|-------|-------|-------|-------|-------|
-------|-------|-------|-------|--3L---|--3L---|--3L---|--3----|-------|-------|
-------|-------|-------|-------|-------|-------|-------|-------|--5L---|--5L---|


-------|-------|-------|-------|-------|-------|-------|-------|-------|-------|
-------|-------|--1L---|--1L---|--1L---|--1----|--3L---|--3L---|--3L---|--3----|
-------|-------|-------|-------|-------|-------|-------|-------|-------|-------|
--5L---|--5----|-------|-------|-------|-------|-------|-------|-------|-------|


-------|-------|-------|-------|-------|-------|-------|-------|-------|-------|
-------|-------|-------|-------|-------|-------|-------|-------|--1L---|--1L---|
--3L---|--3L---|--3L---|--3----|-------|-------|-------|-------|-------|-------|
-------|-------|-------|-------|--5L---|--5L---|--5L---|--5----|-------|-------|


-------|-------|-------|-------|-------|-------|-------|-------|-------|-------|
--1L---|--1----|--3L---|--3L---|--3L---|--3----|-------|-------|-------|-------|
-------|-------|-------|-------|-------|-------|--3L---|--3L---|--3L---|--3----|
-------|-------|-------|-------|-------|-------|-------|-------|-------|-------|


-------|-------|-------|-------|-------|-------|-------|-------|-------|-------|
-------|-------|-------|-------|--1L---|--1L---|--1L---|--1----|--3L---|--3L---|
-------|-------|-------|-------|-------|-------|-------|-------|-------|-------|
--5L---|--5L---|--5L---|--5----|-------|-------|-------|-------|-------|-------|


-------|-------|-------|-------|-------|-------|-------|-------|-------|-------|
--3L---|--3----|-------|-------|-------|-------|-------|-------|-------|-------|
-------|-------|--3L---|--3L---|--3L---|--3----|-------|-------|-------|-------|
-------|-------|-------|-------|-------|-------|--5L---|--5L---|--5L---|--5----|

                                Guitar Solo
-------|-------|-------|-------|----------------------|----------------------|
--1L---|--1L---|--1L---|--1----|----------------------|----------------------|
-------|-------|-------|-------|----------------------|----------------------|
-------|-------|-------|-------|--5--5--5--5--5--5----|--5--5--5--5--5--5----|


----------------------|----------------------|----------------------|
----------------------|----------------------|----------------------|
----------------------|----------------------|----------------------|
--3--3--3--3--3--3----|--0--0--0--0--0--0----|--1--1--1--1--1--1----|


----------------------|----------------------|----------------------|
----------------------|----------------------|----------------------|
----------------------|----------------------|----------------------|
--1--1--1--1--1--1----|--3--3--3--3--3--3----|--3--3--3--3--3--3----|


----------------------|----------------------|----------------------|
----------------------|----------------------|----------------------|
----------------------|----------------------|----------------------|
--5--5--5--5--5--5----|--5--5--5--5--5--5----|--3--3--3--3--3--3----|


----------------------|----------------------|----------------------|
----------------------|----------------------|----------------------|
----------------------|----------------------|----------------------|
--0--0--0--0--0--0----|--1--1--1--1--1--1----|--1--1--1--1--1--1----|


----------------------|----------------------|
----------------------|----------------------|
----------------------|----------------------|
--3--3--3--3--3--3----|--3--3--3--3--3--3----|


----------------------------------------|----------------------|
----------------------------------------|----------------------|
----------------------------------------|----------------------|
--5--5--5--5--5--5--5-------------------|--5--5--5--5--5--5----|


----------------------|----------------------------------------|
----------------------|----------------------------------------|
----------------------|----------------------------------------|
--3--3--3--3----------|--0--0--0--0--0--0--0--0--0--0--0--0----|


----------------------|----------------------|----------------------|
----------------------|----------------------|----------------------|
----------------------|----------------------|----------------------|
--1--1--1--1----------|--1--1--1--1--1--1----|--3--3--3--3----------|


----------------------|----------------------------------------|
----------------------|----------------------------------------|
----------------------|----------------------------------------|
--3--3--3--3--3--3----|--5--5--5--5--5--5--5-------------------|


----------------------|----------------------|
----------------------|----------------------|
----------------------|----------------------|
--5--5--5--5--5--5----|--3--3--3--3----------|


----------------------------------------|----------------------|
----------------------------------------|----------------------|
----------------------------------------|----------------------|
--0--0--0--0--0--0--0--0--0--0--0--0----|--1--1--1--1----------|


----------------------|----------------------|----------------------|
----------------------|----------------------|----------------------|
----------------------|----------------------|----------------------|
--1--1--1--1--1--1----|--3--3--3--3----------|--3--3--3--3--3--3----|

Outro
----------------------------|----------------------------|
----------------------------|----------------------------|
----------------------------|----------------------------|
--1--0--2--3--1--0--1--0----|--2--3--1--0--1--0--2--3----|


----------------------------|----------------------------|
----------------------------|----------------------------|
----------------------------|----------------------------|
--1--0--2--3--1--0--1--0----|--2--3--1--0--1--0--2--3----|


----------------------------|----------------------------|
----------------------------|----------------------------|
----------------------------|----------------------------|
--1-----0--1-----0--1-------|--0--1-----0--1-----0--1L---|


----------------------------|----------------------------|
----------------------------|----------------------------|
----------------------------|----------------------------|
--1--0--1-----0--1-----0----|--1-----0--0--0--0--1-------|


----------------------------|----------------------------|
----------------------------|----------------------------|
----------------------------|----------------------------|
--1-----0--1-----0--1-------|--0--1-----0--1-----0--1L---|


----------------------------|----------------------------|
----------------------------|----------------------------|
----------------------------|----------------------------|
--1--0--1-----0--1-----0----|--1-----0--0--0--0--1-------|


----------------------------|----------------------------|
----------------------------|----------------------------|
----------------------------|----------------------------|
--1--1--0--1--1--0--1--1----|--0--1--1--0--1--1--0--1----|


----------------------------|----------------------------|
----------------------------|----------------------------|
----------------------------|--3-------------------------|
--1--0--1--1--0--1--1--0----|--------0--0--0--0--1-------|


----------------------------|----------------------------|
----------------------------|----------------------------|
----------------------------|----------------------------|
--1--1--0--1--1--0--1--1----|--0--1--1--0--1--1--0--1----|


----------------------------|----------------------------|-------|-------|
----------------------------|----------------------------|-------|-------|
----------------------------|--5-------------------------|-------|-------|
--1--0--1--1--0--1--1--0----|--------0--0--0--0--1-------|-------|-------|


-------|-------||
-------|-------||
-------|-------||
-------|-------||

            
            
Suggest correction
Creating personal tab
Creating personal tab
You can edit any tab online and save it as your Personal.

You can edit, replace or remove any tab part or add personal notes – all changes will be seen only by you.

Personal tabs can be accessed anytime from any device, even offline.
Learn more »
Give kudos to tab author, rate the tab!
1 2 3 4 5
comments
print report bad tab
guest
You may want to rate the tab now too:
select rating
Wanna post a correction for this tab? Suggest correction