Oops, an error
Loading. Please wait.

12 Bar Blues Riff Tab

1,684 views 39 this week
no commentswrite comment
1 2 3 4 5
x 10
add to favorites
launch autoscroll
font size
0
reset
how to read this tab
guitar tuner
×
Best way to learn
"12 Bar Blues Riff"
Autoscroll
slow
fast
+/-
esc
set tempo
stop
Author
Difficulty
This is a 12 Bar Blues Riff and is in triplets

**I DO NOT TAKE CREDIT FOR THIS**


e|-----------------|--------0-------------|-----------------|--------0-------------|
B|-----------------|-----3b---3-0---------|-----------------|-----3b---3-0---------|
G|-----------------|--------------3-2-0---|-----------------|--------------3-2-0---|
D|-----------------|--------------------2-|-----------------|--------------------2-|
A|-2-2-4-4-5-5-4-4-|-2--------------------|-2-2-4-4-5-5-4-4-|-2--------------------|
E|-0-0-0-0-0-0-0-0-|-0--------------------|-0-0-0-0-0-0-0-0-|-0--------------------|

e|-----------------|-----3-0---0----------|-----------------|-----------------------|
B|-----------------|---------3---3-0------|-----------------|-----------------------|
G|-----------------|-----------------3b-0-|-----------------|-----------------------|
D|-2-2-4-4-5-5-4-4-|-2--------------------|-----------------|---------0-2-0---0-----|
A|-0-0-0-0-0-0-0-0-|-0--------------------|-2-2-4-4-5-5-4-4-|-2---0-2-------2---2-0-|
E|-----------------|----------------------|-0-0-0-0-0-0-0-0-|-0---------------------|

e|-----------------|------------------|---4-----3-----2---0-|-----2-2-2-2-2-2-|-0-|
B|-----------------|-----/3-2-0-------|-------------------0-|-----0-0-0-0-0-0-|-0-|
G|-----------------|-----/4-2-0-------|-4---4-3---3-2---2-1-|-----2-2-2-2-2-2-|-1-|
D|-4-4-6-6-4-4-6-6-|-2----------2-0---|---------------------|-----1-1-1-1-1-1-|-2-|
A|-2-2-2-2-2-2-2-2-|-0--------------2-|---------------------|-0-1-2-2-2-2-2-2-|-2-|
E|-----------------|----------------0-|---------------------|-----------------|-0-|


***********************************

|  / = Slide Up
|  b = Bend

***********************************
Suggest correction
comments
print report bad tab
guest
You may want to rate the tab now too:
select rating
Wanna post a correction for this tab? Suggest correction