Oops, an error
Loading. Please wait.

American Boy bass

version 2
version 2

Whole song

Interactive

by Estelle
30,897 views 27 this week
2 commentsread comments
1 2 3 4 5
x 10
add to favorites
×
Save as Personal and add changes to this tab that will be seen only by you. Learn more ›
×
You can save this tab as Personal to edit and correct it or add notes. All changes will be seen only by you. Learn more »
launch autoscroll
font size
0
reset
guitar tuner
edit
Autoscroll
slow
fast
+/-
esc
set tempo
stop
Author
Difficulty
Unregistered
This is a great song, the bass line repeats itself with breakdowns throughout the song.
I have added some timings but listen to the song to hear it better as the octaves are 
16th notes.

     |      |      |      |       |      |      |      |
G|-----9------9---------------|-----------------------------|
D|----------------------------|-----10-------------10-------|
A|--7------7------7.---7----7-|-----------------------------|
E|----------------------------|--8------8.-----8----------8-|

     |      |      |      |       |      |      |      |
G|----------------------------|---------------------7-----7-|
D|-----7------7--------7----7-|-----7-----------------------|
A|----------------------------|----------------5------------|
E|--5------5------5.----------|--5------5-------------------|

The . after a note symbolises a dotted note, i.e. 1.5 times the length. In this instance 
are always 8th notes.
Suggest correction
Creating personal tab
Creating personal tab
You can edit any tab online and save it as your Personal.

You can edit, replace or remove any tab part or add personal notes – all changes will be seen only by you.

Personal tabs can be accessed anytime from any device, even offline.
Learn more »
comments
print report bad tab
2 comments total.
0 reply
Aguero 70 Jan 26, 2009 09:15 AM

G|----9---9---9--------------------------------7-|
D|-----------x-----10---10---7---7---7---7-------|
A|--7---7---7-----------------------x--------5---|
E|--------------88----8----5---5---5---5---5-----|


sounds more like this to me mate!

0 reply
WibbleWobble 1,921 Feb 26, 2010 10:25 PM

this is a great song for the bass

guest
Wanna post a correction for this tab? Suggest correction