Oops, an error
Loading. Please wait.

Superheroes Bass Tab

13 views 3 this week
no commentswrite comment
1 2 3 4 5
3 more votes to show rating
add to favorites
launch autoscroll
font size
0
reset
guitar tuner
Autoscroll
slow
fast
+/-
esc
set tempo
stop
Help us to improve Ultimate-Guitar.com Take our survey!
×
Author
Difficulty
Tuning
novice
D# G# C# F# A# D#
About this tab version
Numbers above measures indicate beats according to 4/4 time. Was this info helpful? Yes No
"Superheroes" by Esthero
From the 1998 album Breath From Another

Tune 1/2 step down
 
Play throughout verses
   1      2      3   4     
G|----------------------------|
D|-0-0----0------0--------0---|
A|------4----4-0---4-0-2----0-|
E|----------------------------|

Bridge
   4     1   2     3 4       1     2 3     4       1    2 3   4       1 2 3 4
G|-----|-------------------|---------------------|--------------2p0-|----------|
D|-----|-----------------0-|-0-0-2-------------0-|-0----------------|-4-----4\-|
A|-9\--|-2-2-2-2-2-2-0h2---|---------------0h2---|----2-------0-----|----------|
E|-----|-------------------|---------------------|------------------|----------|

  1   2     3 4       1     2 3     4       1      2 3 4   1 2 3 4
G|-------------------|---------------------|--------------|---------|
D|-----------------0-|-0-0-2-------------0-|-0------------|---------|
A|-2-2-2-2-2-2-0h2---|---------------0h2---|----2-------0-|-2-------|
E|-------------------|---------------------|--------------|---------|

Continue verse progression

\ Slide down
h Hammer on
p Pull off

Suggest correction
Give kudos to tab author, rate the tab!
1 2 3 4 5
comments
print report bad tab
guest
You may want to rate the tab now too:
select rating
Wanna post a correction for this tab? Suggest correction