Oops, an error
Loading. Please wait.

Kulang tab

97 views 1 this week
no commentswrite comment
1 2 3 4 5
3 more votes to show rating
add to favorites
×
Save as Personal and add changes to this tab that will be seen only by you. Learn more ›
×
You can save this tab as Personal to edit and correct it or add notes. All changes will be seen only by you. Learn more »
launch autoscroll
font size
0
reset
how to read this tab
guitar tuner
edit
Autoscroll
slow
fast
+/-
esc
set tempo
stop
Author
 chin chin version

[Intro]

e|--------------------p--s------------------p--s-----------------------------|
B|--------------2-----2--2-------------0----0--0-----------------------------|
G|----------1---------1--1----------2-------2--2-----------------------------|
D|------2-------------2--2-------2----------2--2-----------------------------|2x
A|---0----------------0--0----0-------------0--0-----------------------------|
E|---------------------------------------------------------------------------|


[Verse]

repeat lang, hanggang "paano na kaya bukas

               x4              x4  
e||------0------||------0------||
B||------2------||------0------||
G||------1------||------2------||
D||------2------||------2------||
A||------0------||------0------||
E||------0------||------0------||


[Refrain]

   pag kagising ay may luha    oh eto nanaman ako oh

e|----0--------------0---------------0------------0-----------------------------|
B|----5--------------0---------------5------------0-----------------------------|
G|----0--------------7---------------0------------7-----------------------------|
D|----6--------------7---------------6------------7-----------------------------|
A|----4--------------5---------------4------------5------------------------------|
E|----0--------------0---------------0------------0-----------------------------|

   mas mabuti ng magkalayo ang ating landas
e|-----x----------0------------------0------------------------------------------|
B|-----x----------5------------------0------------------------------------------|
G|-----0----------0------------------7------------------------------------------|
D|-----6----------6------------------7------------------------------------------|
A|-----7----------4------------------5------------------------------------------|
E|-----0----------0------------------0------------------------------------------|

 dahil wala ka naman talagang oras

e|-----x----------0------------------0------------------------------------------|
B|-----x----------5------------------0------------------------------------------|
G|-----0----------0------------------7------------------------------------------|
D|-----6----------6------------------7------------------------------------------|
A|-----7----------4------------------5------------------------------------------|
E|-----0----------0------------------0------------------------------------------|


[Chorus]

(same chord progression sa buong chorus)

  alam mo ba iniisip kita paano kung bigla nalang ako nag laho sa piling mo
e|----0----------------x---------------0--------------------------0--------|
B|----0----------------x---------------5--------------------------0--------|
G|----0----------------0---------------0--------------------------7--------|
D|----7----------------6---------------6--------------------------7--------|
A|----7----------------7---------------4--------------------------5--------|
E|----5----------------0---------------0--------------------------0--------|


[Instrumental]

e|--------------------p--s------------------p--s-----------------------------|
B|--------------2-----2--2-------------0----0--0-----------------------------|
G|----------1---------1--1----------2-------2--2-----------------------------|
D|------2-------------2--2-------2----------2--2-----------------------------|2x
A|---0----------------0--0----0-------------0--0-----------------------------|
E|---------------------------------------------------------------------------|
 
 
[Verse]

repeat lang, hanggang "paano na kaya bukas

               x4              x4  
e||------0------||------0------||
B||------2------||------0------||
G||------1------||------2------||
D||------2------||------2------||
A||------0------||------0------||
E||------0------||------0------||


[Refrain]

   pag kagising ay may luha    oh eto nanaman ako oh

e|----0--------------0---------------0------------0-----------------------------|
B|----5--------------0---------------5------------0-----------------------------|
G|----0--------------7---------------0------------7-----------------------------|
D|----6--------------7---------------6------------7-----------------------------|
A|----4--------------5---------------4------------5------------------------------|
E|----0--------------0---------------0------------0-----------------------------|

   mas mabuti ng magkalayo ang ating landas
e|-----x----------0------------------0------------------------------------------|
B|-----x----------5------------------0------------------------------------------|
G|-----0----------0------------------7------------------------------------------|
D|-----6----------6------------------7------------------------------------------|
A|-----7----------4------------------5------------------------------------------|
E|-----0----------0------------------0------------------------------------------|

 dahil wala ka naman talagang oras

e|-----x----------0------------------0------------------------------------------|
B|-----x----------5------------------0------------------------------------------|
G|-----0----------0------------------7------------------------------------------|
D|-----6----------6------------------7------------------------------------------|
A|-----7----------4------------------5------------------------------------------|
E|-----0----------0------------------0------------------------------------------|


[Chorus]

(same chord progression sa buong chorus)

  alam mo ba iniisip kita paano kung bigla nalang ako nag laho sa piling mo
e|----0----------------x---------------0--------------------------0--------|
B|----0----------------x---------------5--------------------------0--------|
G|----0----------------0---------------0--------------------------7--------|
D|----7----------------6---------------6--------------------------7--------|
A|----7----------------7---------------4--------------------------5--------|
E|----5----------------0---------------0--------------------------0--------|

  alam mo ba iniisip kita paano kung bigla nalang ako nag laho sa piling mo
e|----0----------------x---------------0--------------------------0--------|
B|----0----------------x---------------5--------------------------0--------|
G|----0----------------0---------------0--------------------------7--------|
D|----7----------------6---------------6--------------------------7--------|
A|----7----------------7---------------4--------------------------5--------|
E|----5----------------0---------------0--------------------------0--------|


[Outro]
         
e|--------------------p--s------------------p--s-----------------------------|
B|--------------2-----2--2-------------0----0--0-----------------------------|
G|----------1---------1--1----------2-------2--2-----------------------------|
D|------2-------------2--2-------2----------2--2-----------------------------|2x
A|---0----------------0--0----0-------------0--0-----------------------------|
E|---------------------------------------------------------------------------|



********************************

| x    Dead note
| s    Strum 
| p    Pluck

*******************************

            
            
Suggest correction
Creating personal tab
Creating personal tab
You can edit any tab online and save it as your Personal.

You can edit, replace or remove any tab part or add personal notes – all changes will be seen only by you.

Personal tabs can be accessed anytime from any device, even offline.
Learn more »
Give kudos to tab author, rate the tab!
1 2 3 4 5
comments
print report bad tab
guest
You may want to rate the tab now too:
select rating
Wanna post a correction for this tab? Suggest correction