Oops, an error
Loading. Please wait.

Stay Chords

version 1
version 1

Whole song

Interactive

113,449 views 111 this week
4 commentsread comments
1 2 3 4 5
x 8
add to favorites
launch autoscroll
font size
0
reset
transpose
0
reset
simplify chords
display chords
guitar tuner
Autoscroll
slow
fast
+/-
esc
set tempo
stop
Help us to improve Ultimate-Guitar.com Take our survey!
×
Author
Estrella  : Stay
Tabbed by : Hariz05
Tunning   : Standard (EADGBe)

Visit: http://www.myspace.com/estrellaband
Watch: http://youtube.com/watch?v=qsDqWIl5QYM

Dmaj7 - x5767x
C#m7  - 9x999x
Cm7   - 8x888x
Bm7   - 7x777x
Amaj  - 5776xx


[Intro]

Dmaj7 - C#m7 - Cm7/Bm - Amaj

The last chord, Amaj, goes like this:

e|--------------------------------|
B|--------------------------------|
G|-6-6-6--7-7-7-7--9-9-9--7-7-7-7-|
D|-7-7-7--7-7-7-7--7-7-7--7-7-7-7-|
A|-7-7-7--7-7-7-7--7-7-7--7-7-7-7-|
E|-5-5-5--5-5-5-5--5-5-5--5-5-5-5-|


[Verse 1]

Dmaj7                   C#m7       
Sound straight from the twilight,
       Cm7/Bm7
Has me up all night,
              Amaj
I can't fall asleep 'cause I keep thinking of you,
    Dmaj7   C#m7           Cm7/Bm7            Amaj      
And I saw a shadow outside my window and it's you.


[Chorus]

       Dmaj7
All my sorrows flew away,
           C#m7
Hush, keep quiet, hear me say,
        Bm7
I don't ever want you to go,
       Amaj
Please stay.

         Dmaj7
With the moonlight dancing free,
            C#m7
And there's no one but you and me,
           Bm7
There's no reason to go astray,
       Amaj
Please stay.


[Riff]

Dmaj7
Making up a story,
         C#m7
It's the way you're looking at me,
       Bm7        
If you think that this is funny,
          Amaj
it's just you.

Try and think about it,
If you're heart is closed don't lock,
Keep your keys back in your pocket,
Think this through.


[Solo]

(Use same chord as above)

e|--------------------------------------------------------------------|
B|-----------------7-7-7-7-9-9-9-9-10-10-10-10-9-7--------------------|
G|-7-7-7-7-9-9-9-9---------------------------------9-9-9--------------|
D|--------------------------------------------------------------------|
A|--------------------------------------------------------------------|
E|--------------------------------------------------------------------|

e|------------------------------------------------------------|
B|------------------------------------------------------------|
G|-7-7-7-9-7-7-9-7-7-9-7-7-7-9-6-7-6-6-7-6-6-7-6-6-6-7-6------|
D|------------------------------------------------------------|
A|------------------------------------------------------------|
E|------------------------------------------------------------|

e|-----------------------------------------------------------------|
B|-----------------7-7-7-7-9-9-9-9-9-10-9-10-9-10-9-10-12-10-9-9-9-|
G|-7-7-7-7-9-9-9-9-------------------------------------------------|
D|-----------------------------------------------------------------|
A|-----------------------------------------------------------------|
E|-----------------------------------------------------------------|

e|------------------------------------------------------------|
B|------------------------------------------------------------|
G|-7-7-7-9-7-7-9-7-7-9-7-7-7-9-6-7-6-6-7-6-6-7-6-6-6-7-6------|
D|------------------------------------------------------------|
A|------------------------------------------------------------|
E|------------------------------------------------------------|

(repeat chorus)


[Outro]

       Dmaj7
Please stay
     C#m7
Just stay with me
           Bm7
and I will take you to Foreverland
     Amaj
Just stay

e|-----------------------------------|
B|-----------------------------------|
G|-6-6-6--7-7-7-7--9-9-9--7-7-7-7--6-|
D|-7-7-7--7-7-7-7--7-7-7--7-7-7-7--7-|
A|-7-7-7--7-7-7-7--7-7-7--7-7-7-7--7-|
E|-5-5-5--5-5-5-5--5-5-5--5-5-5-5--5-|

Watch: http://youtube.com/watch?v=qsDqWIl5QYM
Suggest correction
comments
print report bad tab
4 comments total. Showing first comments.
+1 reply
PopoHappy 10 Nov 30, 2008 05:24 AM

Nice song and awesome tab. So far i believe its very accurate.

0 reply
chellejy 10 Feb 05, 2009 04:13 AM

i think istead of D , use Dmaj7...sounds nicer :)

0 reply
hariz05 682 Feb 15, 2009 10:28 AM

it is Dmaj7, im just showing the basic chords, look at my other tab :)

guest
You may want to rate the tab now too:
select rating
Wanna post a correction for this tab? Suggest correction