Oops, an error
Loading. Please wait.

The River Flows Frozen Tab

version 2
version 2

Intro

  • These tabs were written note by note while listeni... Show more

Whole song

Interactive

16 views 6 this week
no commentswrite comment
1 2 3 4 5
3 more votes to show rating
add to favorites
launch autoscroll
font size
0
reset
how to read this tab
guitar tuner
Autoscroll
slow
fast
+/-
esc
set tempo
stop
Help us to improve Ultimate-Guitar.com Take our survey!
×
Author
Difficulty
Tuning
intermediate
D# G# C# F# A# D#
About this tab version
These tabs were written note by note while listening to the slowed down original song. Was this info helpful? Yes No
/**************************************************************************\
|         INTRO of THE RIVER FLOWS FROZEN by ETERNAL TEARS OF SORROW       |
\**************************************************************************/


e|-----------0----------7-------7---------8---------0--|--0------0---------------------0-------------|
B|--------------0-------0----------0---------0---------|--0---------5---------------5-----5----------|
G|-----------------5----5------------------------------|--0------------4---------4-----------4-------|
D|-------7--------------7-------------7----------7-----|--5---5--------------------------------------|
A|----0-----------------0------------------------------|---------------------------------------------|
E|-----------------------------------------------------|-------------------0-------------------------|
Let Ring

e|-------------1------0---------------------|-------------3---------3/5------5--------5-------3------|
B|----------1-----1---1-----1-----0h1-------|--------(0)---------------------------------------------|
G|-------2------------2--------2-------2/4--|----------------0------(0)--------------(0)-----(0)-----|
D|---3----------------3----------------3/5--|--------------------------------------------------------|
A|------------------------------------------|--------------------------------------------------------|
E|------------------------------------------|---0---------------0---------0------0--------0----------|
Let Ring

e|------------0----------7-------7---------8---------0--|--0------0---------------------0------------|
B|---------------0-------0----------0---------0---------|--0---------5---------------5-----5---------|
G|------------------5----5------------------------------|--0------------4---------4-----------4------|
D|--------7--------------7-------------7----------7-----|--5---5-------------------------------------|
A|--0--0-----------------0------------------------------|--------------------------------------------|
E|------------------------------------------------------|-------------------0------------------------|
Let Ring

e|-------------1------0---------------------|-------------3---------3/5------5-------------12--------|
B|----------1-----1---1-----1-----0h1-------|------------------------------------------12------------|
G|-------2------------2--------2-------2/4--|----------------0------(0)-------------X----------------|
D|---3----------------3----------------3/5--|--------(2)---------------------------------------------|
A|------------------------------------------|--------------------------------------------------------|
E|------------------------------------------|---0---------------0---------0------0-------------------|
Let Ring

e|-----------0----------7-------7---------8---------0--|--0------0---------------------0-------------|
B|--------------0-------0----------0---------0---------|--0---------5---------------5-----5----------|
G|-----------------5----5------------------------------|--0------------4---------4-----------4-------|
D|-------7--------------7-------------7----------7-----|--5---5--------------------------------------|
A|----0-----------------0------------------------------|---------------------------------------------|
E|-----------------------------------------------------|-------------------0-------------------------|
Let Ring

e|-------------1------0---------------------|-------------3---------3/5------5--------5-------3------|
B|----------1-----1---1-----1-----0h1-------|--------(0)---------------------------------------------|
G|-------2------------2--------2-------2/4--|----------------0------(0)--------------(0)-----(0)-----|
D|---3----------------3----------------3/5--|--------------------------------------------------------|
A|------------------------------------------|--------------------------------------------------------|
E|------------------------------------------|---0---------------0---------0------0--------0----------|
Let Ring

e|------------0----------7-------7---------8---------0--|--0------0---------------------0------------|
B|---------------0-------0----------0---------0---------|--0---------5---------------5-----5---------|
G|------------------5----5------------------------------|--0------------4---------4-----------4------|
D|--------7--------------7-------------7----------7-----|--5---5-------------------------------------|
A|--0--0-----------------0------------------------------|--------------------------------------------|
E|------------------------------------------------------|-------------------0------------------------|
Let Ring

e|-------------1------0--------------------|----------------------------------------------------------|
B|----------1-----1---1-----1-----0h1------|--------------1--0h1p-------------------------------------|
G|-------2------------2--------2-------2\--|----------0-----------------------------------------------|
D|---3----------------3----------------3\--|----------------------------------------------------------|
A|-----------------------------------------|----3---------------------2-------------------------------|
E|-----------------------------------------|----------------------------------------------------------|
Let Ring

************************************

| /  slide up
| \  slide down
| h  hammer-on
| p  pull-off
| X  Mute note
| () Ghost note

************************************
Suggest correction
Give kudos to tab author, rate the tab!
1 2 3 4 5
comments
print report bad tab
guest
You may want to rate the tab now too:
select rating
Wanna post a correction for this tab? Suggest correction