Oops, an error
Loading. Please wait.

Id Rather Go Blind bass

version 1
version 1

Whole song

Interactive

4,180 views 27 this week
4 commentsread comments
1 2 3 4 5
x 3
add to favorites
×
Save as Personal and add changes to this tab that will be seen only by you. Learn more ›
×
You can save this tab as Personal to edit and correct it or add notes. All changes will be seen only by you. Learn more »
launch autoscroll
font size
0
reset
guitar tuner
edit
Autoscroll
slow
fast
+/-
esc
set tempo
stop
-------------------------------------------------------------------------------
                       I'd Rather Go Blind - Etta James
-------------------------------------------------------------------------------
Tabbed by: CorporalCrunch
Tuning: Standard


Intro: 
G|---------------------------------------------------------------------|
D|-7-----7----------9-----9--7----7-------9--7------7-----7---------7--|
A|-----7-----9-7--9-----9------9----9---9------9--7-----7----9-7--9----|
E|---------------------------------------------------------------------|


Verses: 
"Something told me it was over..."
G|-----------------------------------------------------------------|
D|---7----------9-----9--7----7-------9--7------7-----7---------7--|
A|-7-----9-7--9-----9------9----9---9------9--7-----7----9-7--9----|
E|-----------------------------------------------------------------|

"Something deep down in my soul said, 'Cry, girl..."
G|------------------------------------------------------------------|
D|---7----------9-----9--7----7-------9--7-------7-----7---------7--|
A|-7-----9-7--9-----9------9----9---9------9-7-9-----7----9-7--9----|
E|------------------------------------------------------------------|

"Whoo, I would rather, I would rather go blind..."
G|-----------------------------------------------------------------|
D|---7----------9-----9--7----7-------9--7------7-----7---------7--|
A|-7-----9-7--9-----9------9----9---9------9--7-----7----9-7--9----|
E|-----------------------------------------------------------------|

"Whoo, so you see, I love you so much..."
G|------------------------------------------------------------------|
D|---7----------9-----9--7----7-------9--7-------7-----7---------7--|
A|-7-----9-7--9-----9------9----9---9------9-7-9-----7----9-7--9----|
E|------------------------------------------------------------------|

"Whoo, whoo, I was just, I was just, I was just..."
G|-----------------------------------------------------------------|
D|---7----------9-----9--7----7-------9--7------7-----7---------7--|
A|-7-----9-7--9-----9------9----9---9------9--7-----7----9-7--9----|
E|-----------------------------------------------------------------|

"When the reflection in the glass that I held to my lips now..."
G|------------------------------------------------------------------|
D|---7----------9-----9--7----7-------9--7-------7-----7---------7--|
A|-7-----9-7--9-----9------9----9---9------9-7-9-----7----9-7--9----|
E|------------------------------------------------------------------|

"Whoo and baby, baby, I'd rather, I'd rather be blind, boy..."
G|------------------------------------------------------------------|
D|---7----------9-----9--7----7-------9--7-------7-----7---------7--|
A|-7-----9-7--9-----9------9----9---9------9-7-9-----7----9-7--9----|
E|------------------------------------------------------------------|

*FADE* "Whoo, baby, baby, baby, I'd rather be blind boy..."
G|------------------------------------------------------------------|
D|---7----------9-----9--7----7-------9--7-------7-----7---------7--|
A|-7-----9-7--9-----9------9----9---9------9-7-9-----7----9-7--9----|
E|------------------------------------------------------------------|

===============================================================================
Suggest correction
Creating personal tab
Creating personal tab
You can edit any tab online and save it as your Personal.

You can edit, replace or remove any tab part or add personal notes – all changes will be seen only by you.

Personal tabs can be accessed anytime from any device, even offline.
Learn more »
Give kudos to tab author, rate the tab!
1 2 3 4 5
comments
print report bad tab
4 comments total. Showing first comments.
0 reply
rightrudder71 50 Apr 09, 2016 08:02 AM, edited on April 11 2016, 09:19 am

I love this song. But Im further up the neck..on the 7th fret...

0 reply
rightrudder71 50 Apr 11, 2016 05:20 AM

If you play it on the 7th fret you dont have to reach or shift so far. Your economy of motion is greatly improved.

0 reply
rightrudder71 50 Apr 11, 2016 05:22 AM

The count is 1 a3 a4 a1

guest
You may want to rate the tab now too:
select rating
Wanna post a correction for this tab? Suggest correction