Oops, an error
Loading. Please wait.

Id Rather Go Blind chords

version 2
version 2

Whole song

  • Lyrics and chords are more complete and the chords are in the right places. KK.

Interactive

12,823 views 240 this week
no commentswrite comment
1 2 3 4 5
x 4
add to favorites
×
Save as Personal and add changes to this tab that will be seen only by you. Learn more ›
×
You can save this tab as Personal to edit and correct it or add notes. All changes will be seen only by you. Learn more »
launch autoscroll
font size
0
reset
transpose
0
reset
display chords
guitar tuner
edit
Autoscroll
slow
fast
+/-
esc
set tempo
stop
Author
Difficulty
Strumming
There is no strumming pattern for this song yet. and get +5 IQ
I have captured most of the major riffs. 
The riffs are placed generally with respect to the lyrics
Key:
h=hammer on
p=pull off
s=slide
 
[Intro]
E|-------------|----------|-----------|-----------------------|---------------|
B|-------------|----------|-----------|-----------------------|---------------|
G|-------------|----------|-----------|-----------------------|---------------|
D|-------------|--2-------|-----------|-----------------------|---------------|
A|-------0-----|4—4-2-----|-----2-----|-----0----------0------|----0--0--0----|
E|-0h2---------|----------|---2-------|-0-2--2--0--2----------|0-2--2--2------|

Riff 1:
E|----------------------------|
B|----------------------------|
G|----------------------------|
D|------------4--2------------|
A|------------------4—2-------|
E|----------------------------|

Riff 2:
E|-------------|---------------|
B|-------------|---------------|
G|-------------|---------------|
D|-------------|---------------|
A|-------0-----|-----------0---|
E|-0h2---------|-2--0--2-------|

Riff 3:
E|-------------|
B|-------------|
G|-------------|
D|-------------|
A|-------4--2--|
E|--2--0-------|

Riff 4:
E|-------------------|-----------------|
B|-------------------|-----------------|
G|----------2--------|-----2--4p2------|
D|---2h4-------------|--4--------------|
A|-------------------|-----------------|
E|-------------------|-----------------|

Riff 5:
E|------------------|-----------------|---------------|
B|------------------|-----------------|---------------|
G|------------------|--2h4----4-------|-4s6--4--2--4--|
D|---2h4---4--------|-----------------|---------------|
A|------------------|-----------------|---------------|
E|------------------|-----------------|---------------|

[Chorus]
A                       Bm         (riff 1)
Somethin' told me it was over... (yeah)
                       A         (riff 2)
When I saw you and her talking.
                           Bm                    (riff 3)        
Somethin' deep down in my soul said, 'cry girl' (cry cry)
                              A              (riff 4)
When I saw you and that girl walkin', around.
A                                       Bm
Whoo. I would rather, I would rather go blind, boy
                                 A              (riff 2)
Than to see you walk away from me child, and all
A
Whoo. So you see, I love you so much,
Bm
That, I don't want to watch you leave me baby.
                                       A                    (riff 2)
Most of all I just don't, I just don't want to be free, no.
                                 Bm
Whoo. Whooi was just, I was just, I was just, sitting here thinking
                            A            (riff 2)
Of your kiss and your warm embrace, yeah
    (riff 1)                               Bm                 (riff 1)
When a reflection in the glass that I held to my lips now baby (yeah yeah),
                                     A          (riff 5)
Revealed these tears that are on my face, yeah
                                             Bm
Whoo. And baby, and baby, baby, I'd rather be blind, boy
                                          A        (riff 2)
Than to see you walk away, walk away from me, yeah
                                         Bm
Whoo, And Baby, baby, baby, I'd rather be blind, boy

            
            
Suggest correction
Creating personal tab
Creating personal tab
You can edit any tab online and save it as your Personal.

You can edit, replace or remove any tab part or add personal notes – all changes will be seen only by you.

Personal tabs can be accessed anytime from any device, even offline.
Learn more »
comments
print report bad tab
guest
You may want to rate the tab now too:
select rating
Wanna post a correction for this tab? Suggest correction