Oops, an error
Loading. Please wait.

Dissolving Tab

version 1
version 1

Whole song

Interactive

999 views 1 this week
1 commentread comment
1 2 3 4 5
1 last vote to show rating
add to favorites
launch autoscroll
font size
0
reset
how to read this tab
guitar tuner
Autoscroll
slow
fast
+/-
esc
set tempo
stop
Help us to improve Ultimate-Guitar.com Take our survey!
×
                         EUCHARIST - DISSOLVING


.  - palm mute                          /  - slide up to
\  - slide down to                      ~  - vibrato
"  - tremelo picking                    () - ghost note
p  - pull off                           h  - hammer-on
tr - trill notes                        fb - full bend (1step)
< > - harmonic

Eucharist - Dissolving

Tune to B

Riff A.1
|--------------------------------------------|
|--------------------------------------------|
|--------------------------------------------|Gtrs I
|-55--555-5522-2200-00-----------------------|  & II
|-33-3333-3333-3333-3322-2222-22555-55-5-5-5-|
|---------------------00-0000-00222-22-2-2-2-|

Riff A.2
|--------------------------------------------|
|--------------------------------------------|
|--------------------------------------------|Gtrs I
|-55--555-5522-2200-00-----------------------|  & II
|-33-3333-3333-3333-3322-2222-22-2------(2)--|
|---------------------00-0000-00-0------(0)--|

Riff B.1
|-----------------------------------------------------------------------|
|-----------------------------------------------------------------------|
|-----------------------------------------------------------------------|
|---4---5-5-4---4-------4---4---5-5-4---4-------4---4---5-5-4---4-------|
|-----------------------------------------------------------------------|
|-0---0-------0---0-0-0---0---0-------0---0-0-0---0---0-------0---0-0-0-|
|                                                                       |
|-----------------------------------------------------------------------|
|-----------------------------------------------------------------------|
|-----------------------------------------------------------------------|
|-------2-2---------------------2-2---------------------2-2-------------|
|---5-------5---5-------5---5-------5---5-------5---5-------5---5-------|
|-0---0-------0---0-0-0---0---0-------0---0-0-0---0---0-------0---0-0-0-|


|---------------------------|
|---------------------------|
|---------------------------|Gtr I
|-4---4---5-5-4---4---5-5-5-|
|---------------------------|
|---0---0-------0---0-------|
|                           |
|---------------------------|
|---------------------------|
|---------------------------|
|---------2-2---------2-2-2-|Gtr II
|-5---5-------5---5---------|
|---0---0-------0---0-------|

Repeat Riff A.1 (2 Times)
Repeat Riff A.1 (Play Riff C Overtop - 2 Times)

Riff C (Lead played over Riff A.1)
|------------------------------|
|------------------------------|
|------------------------------|
|-5---2--4hb+r----------4hb+r--|
|---------------2---5----------|
|------------------------------|

Riff B.2
|-------------------------------------------------|
|-------------------------------------------------|
|-------------------------------------------------|Gtr I
|---4---5-5-4---4-------4---4---5-5-4---4---5-5-5-|
|-------------------------------------------------|
|-0---0-------0---0-0-0---0---0-------0---0-------|
|                                                 |
|-------------------------------------------------|
|-------------------------------------------------|
|-------------------------------------------------|Gtr II
|-------2-2---------------------2-2---------2-2-2-|
|---5-------5---5-------5---5-------5---5---------|
|-0---0-------0---0-0-0---0---0-------0---0-------|

Riff D
|----------------------------------------------------------|
|----------------------------------------------------------|
|--2---2--2---2--2---2--2-220------------------------------|Gtr I
|------------------------------4---4--4---4--5---5--5---5--|
|-3-333--3-333--3-333--3-3---------------------------------|
|-----------------------------0-000--0-000--0-000--0-000---|
|                                                          |
|----------------------------------------------------------|
|----------------------------------------------------------|
|----------------------------------------------------------|Gtr II
|-5----5-5----5-5----5-5----5------------------------------|
|-3-33-3-3-33-3-3-33-3-3-33-3-2----2-2----2-2----2-2----2--|
|-----------------------------0-00-0-0-00-0-0-00-0-0-00-0--|

Repeat Riff D   (1 Time)
Repeat Riff A.1 (2 Times)
Repeat Riff D   (2 Times)
Repeat Riff B.1 (1 Time)
Repeat Riff A.1 (3 Times)

Riff A.4
|---------------|
|---------------|
|---------------|Gtr II
|-5---2---------|
|-3---3---2---5-|
|---------0---2-|

Riff E.1
|---------------------------------------------------|
|---------------------------------------------------|
|---------------------------------------------------|Gtrs I
|---------------------------------------------------|  & II
|---10---9979---10---9979---10----9979---10----9979-|
|-0----00-----0----00-----7----77------7----77------|


Riff E.2
|---------------------------------------------------|
|---------------------------------------------------|
|---------------------------------------------------|Gtr I
|---------------------------------------------------|
|----7---5545----7---5545----7----5545----7----5545-|
|-0----00-----0----00-----7----77------7----77------|
|                                                   |
|---------------------------------------------------|
|---------------------------------------------------|
|---------------------------------------------------|Gtr II
|---------------------------------------------------|
|---10---9979---10---9979---10----9979---10----9979-|
|-0----00-----0----00-----7----77------7----77------|

Riff F
|-----------------------------------------------------|
|-This was as far as I got, sorry.--------------------|
|-----------------------------------------------------|
|-----------------------------------------------------|
|-----------------------------------------------------|
|-----------------------------------------------------|

Repeat Riff A.1 (2 Times)
Repeat Riff A.1 (Play Riff C Overtop - 2 Times)
Repeat Riff D   (4 Times)
Repeat Riff B.1 (2 Times)
Suggest correction
Give kudos to tab author, rate the tab!
1 2 3 4 5
comments
print report bad tab
1 comment total.
+1 reply
NosferatuZodd09 866 Mar 02, 2008 04:29 AM

if only it were finished... :'( (and tabbed on guitar pro/powertab :D)

guest
You may want to rate the tab now too:
select rating
Wanna post a correction for this tab? Suggest correction