Oops, an error
Loading. Please wait.

Che Il Mediterraneo Sia chords

1,270 views 36 this week
no commentswrite comment
1 2 3 4 5
3 more votes to show rating
add to favorites
×
Save as Personal and add changes to this tab that will be seen only by you. Learn more ›
×
You can save this tab as Personal to edit and correct it or add notes. All changes will be seen only by you. Learn more »
launch autoscroll
font size
0
reset
transpose
0
reset
display chords
guitar tuner
edit
Autoscroll
slow
fast
+/-
esc
set tempo
stop
Author
Difficulty
Strumming
There is no strumming pattern for this song yet. and get +5 IQ
https://it.wikipedia.org/wiki/Eugenio_Bennato
https://www.facebook.com/EugenioBennatoOfficial

(Capo II)

[Intro]

Am
al Baar al albiad al mutahuassed

al Baar al albiad al mutahuassed

[verse]
Am                   Dm
Che il Mediterraneo sia 
        G              Am
quella nave che va da sola 
                      Dm
tutta musica e tutta vele 
        G              Am
su quell'onda dove si vola 
                        Dm
tra la scienza e la leggenda 
        G               C
del flamenco e della taranta 
                        Dm
e fra l'algebra e la magia 
        G               Am
nella scia di quei marinai 
                            Dm
e quell'onda che non smette mai 
          G          C
che il Mediterraneo sia 

[chorus]:
      C       Dm        G       C         C      Dm      G        C
e---------------------------------------------------------------------|
B---------------------------------------------------------------------|
G---0---0---0---0-----0---0---0---0-----0---0---0--0----0-------------|
D-----2---2---3---3-----3---3---2---2-----2---2--3---3----3-0---------|
A-------------------------------------------------------------3-2-3---|
E---------------------------------------------------------------------|

   C                   Dm 
Andare, andare, simme tutt'eguale 
   G                          C
affacciati alle sponde dello stesso mare 
      C                   Dm 
e nisciuno è pirata e nisciuno è emigrante 
       G         C
simme tutte naviganti 
   C                   Dm 
allez, allez il n'y a pas de barrière 
              G                 C
nous sommes tous enfants de la même mer 
          C                      Dm
il n'y a pas de pirate il n'y a pas d'émigrant 
              G            Am
nous sommes tous des navigants 


   Am                Dm       G          Am                Dm       G       Am
e---------------------------------------------------------------------------------|
B--------1-0--0-1-0---3---3-1-0--0-1-0--------1-0--0-1-0---3---3-1-0--0-1-0-------|
G---2--2------------2------------------2-2--2------------2------------------2-2---|
D---------------------------------------------------------------------------------|
A---------------------------------------------------------------------------------|
E---------------------------------------------------------------------------------|

[verse]
Am                   Dm
Che il Mediterraneo sia 
        G                Am
la fortezza ca nun tene porte 
                    Dm
addo' ognuno po' campare 
         G               Am
d'a ricchezza ca ognuno porta 
                       Dm
ogni uomo con la sua stella 
       G                 C
nella notte del dio che balla 
                       Dm
e ogni popolo col suo dio 
         G                 Am
che accompagna tutti i marinai 
                             Dm
e quell'onda che non smette mai 
          G          C
che il Mediterraneo sia 

[chorus]
      C       Dm        G       C         C      Dm      G        C
e---------------------------------------------------------------------|
B---------------------------------------------------------------------|
G---0---0---0---0-----0---0---0---0-----0---0---0--0----0-------------|
D-----2---2---3---3-----3---3---2---2-----2---2--3---3----3-0---------|
A-------------------------------------------------------------3-2-3---|
E---------------------------------------------------------------------|
  C                  Dm
andare andare alla stessa festa, 
         G              C
di una musica fatta di gente diversa 
    C             Dm
da Napoli che inventa melodia 
       G           C
ai tamburi dell'Algeria 
   C               Dm
allez allez à la même fête 
         G                 C
d'une musique qui va et jamais s'arrête 
    C                     Dm
de Naples qui invente sa mélodie 
        G              Am
aux tambours de l'Algérie

   Am                Dm       G          Am                Dm       G       Am
e---------------------------------------------------------------------------------|
B--------1-0--0-1-0---3---3-1-0--0-1-0--------1-0--0-1-0---3---3-1-0--0-1-0-------|
G---2--2------------2------------------2-2--2------------2------------------2-2---|
D---------------------------------------------------------------------------------|
A---------------------------------------------------------------------------------|
E---------------------------------------------------------------------------------|

[verse]
Am                   Dm
Che il Mediterraneo sia
        G              Am 
quella nave che va da sempre
                      Dm 
navigando tra nord e sud
         G            Am 
tra l'oriente e l'occidente
                        Dm 
e nel mare delle invenzioni
        G              Am 
quella bussola per navigare
                       Dm 
Nina, Pinta e Santa Maria
        G                  Am 
e il coraggio di quei marinai
                               Dm 
e quel viaggio che non smette mai
          G          Am 
che il Mediterraneo sia 

(al baar al albiad al mutahuassed) 

Am                   Dm
Che il Mediterraneo sia
         G              Am 
quella nave che va da sola 
                     Dm
tra il futuro la poesia
        G               Am
nella scia di quei marinai
                             Dm 
e quell'onda che non smette mai
          G          C
che il Mediterraneo sia.
Suggest correction
Creating personal tab
Creating personal tab
You can edit any tab online and save it as your Personal.

You can edit, replace or remove any tab part or add personal notes – all changes will be seen only by you.

Personal tabs can be accessed anytime from any device, even offline.
Learn more »
Give kudos to tab author, rate the tab!
1 2 3 4 5
comments
print report bad tab
guest
You may want to rate the tab now too:
select rating
Wanna post a correction for this tab? Suggest correction