Oops, an error
Loading. Please wait.

Carrie Bass Tab

version 1
version 1

Whole song

10,366 views 15 this week
no commentswrite comment
1 2 3 4 5
please rate
add to favorites
launch autoscroll
font size
0
reset
guitar tuner
Autoscroll
slow
fast
+/-
esc
set tempo
stop
Help us to improve Ultimate-Guitar.com Take our survey!
×
-------------------------------------------------------------------------------
			     CARRIE - Europe
-------------------------------------------------------------------------------

Tabbed By : Jakub Dmowski
e-mail: jakub.dmowski@gmail.com

Tuning: standart (EADG)

I've searched bass tabs for this songs for a very long time and I found nothing, so I 
to work it out on my own. It's my first tab in fact, so there can be some mistakes, 
in solo part, I don't know how correct it is, but it sounds really good.

Bass enters in pre-chorus, when drums and guitar comes in.
G|-------|-------|--------||----------|----------|-----------|--------||
D|-------|-------|--------||*---------|----------|-----------|-------*||
A|-3--55-|-3-----|-5--3-5-||*---------|------5--5|-3--3-5-7--|5--55--*||
E|-------|----55-|--------||-3--3-2--2|-0--0-----|-----------|--------|| x2
Can't you see it...         Carrie...

After the chorus
G|--------|-----4h5p4-------------|
D|--------|----5------5-4h5p4h5-5-|
A|-------2|-3---------------------|
E|-5-55---|-----------------------|
I'm not sure about this fill, I'm not sure even if it is bass or guitar, but sounds good.

Second verse:
G|-------------|-------|-----------|--------|
D|--5-4--------|-------|-----------|--------|
A|------7--777-|-5-3--3|------2--02|-3--3-5-|
E|-------------|-------|-5--5------|--------|
I read your mind...

G|--------|-------|----------|-----------|
D|--------|-------|----------|-----------|
A|-7--777-|-5-3--3|-----2--02|3--3-5--55-|
E|--------|-------|-5-5------|-----------|
It all takes time...

Second pre-chorus and chorus:
G|-------|-------|--------||----------|----------|-----------|--------||
D|-------|-------|--------||*---------|----------|-----------|-------*||
A|-3--55-|-3-----|-5--3-5-||*---------|------5--5|-3--3-5-7--|5--55--*||
E|-------|----55-|--------||-3--3-2--2|-0--0-----|-----------|--------||
Can't you see it...         Carrie...

Solo part:
G|-----------|-------------|-----|-----|------|-----|-------|---------|
D|-----------|-------------|-----|-----|------|-----|-------|---------|
A|-3-5-7--77-|-7-10-7--7---|-----|3---3|5--55-|--55-|-7--77-|-7--10---|
E|-----------|-----------02|3---3|-----|------|-----|-------|-------02|

G|-----|-----|-------|------|
D|-----|-----|-------|------|
A|-----|3---3|5---75-|--5-5-|
E|3---3|-----|-------|------|

Third pre-chorus and chorus:
G|-------|-------|--------||----------|----------|-----------|--------||
D|-------|-------|--------||*---------|----------|-----------|-------*||
A|-3--55-|-3-----|-5--3-5-||*---------|------5--5|-3--3-5-7--|5--55--*||
E|-------|----55-|--------||-3--3-2--2|-0--0-----|-----------|--------||
Can't you see it...         Carrie...

G|--------|-----4h5p4-------------|
D|--------|----5------5-4h5p4h5-5-|
A|-------2|-3---------------------|
E|-5-55---|-----------------------|


/  slide up
| \  slide down
| h  hammer-on
| p  pull-off
| ~  vibrato
| +  harmonic
| x  Mute note
===============================================================================
Suggest correction
Give kudos to tab author, rate the tab!
1 2 3 4 5
comments
print report bad tab
guest
You may want to rate the tab now too:
select rating
Please do not post tabs as comments. Select "correction" instead!