Oops, an error
Loading. Please wait.

Carrie Tab

version 1
version 1

Whole song

37,982 views 105 this week
1 commentread comment
1 2 3 4 5
x 6
add to favorites
launch autoscroll
font size
0
reset
how to read this tab
guitar tuner
Autoscroll
slow
fast
+/-
esc
set tempo
stop
Help us to improve Ultimate-Guitar.com Take our survey!
×
Author
Difficulty
novice
EUROPE - CARRIE


PIANO:
 Em G C  Am G C D Am  C D G


[Verse]
                  Em            G C               Am
  When lights go down I see no reason   for you to cry
     G              C       D             Em              G C
  We've been thro' this before   in every time   in every season
                 Am    G                   C       D
  God knows I've tried     so please don't ask for more


[Chorus]
             C            D          C                 Am       D    C D
  Can't you see it in my eyes  Well this might be our last goodbye
G     D   Em         D      C D Em
  Car    rie     car   rie
              Dsus4       D     G     D      G      D     C D Em
  things they change my friend     Car  rie     car  rie
              Dsus4     D   Am  [FILL 1]  G C             G
  maybe we'll meet        again       somewhere      again



[Verse]
                  Em            G C   [FILL 2]    Am
  I read your mind, with no intensions  Of being unkind
     G              C       D             Em              G C       [FILL 3]
  I wish I could explain         It all takes time  a whole lot of patience
                 Am    G                   C       D
  If it's a crime           how come i feel no pain


[Chorus]
             C            D          C                 Am       D    C D
  Can't you see it in my eyes  Well this might be our last goodbye
G     D   Em         D      C D Em
  Car    rie     car   rie
              Dsus4       D     G     D      G      D     C D Em
  things they change my friend     Car  rie     car  rie
              Dsus4     D   Am  
  maybe we'll meet        again


[SOLO]
                          |----3---|                             
           H        Q     E    E   E      H.             E   E   
e-------|-------------------------17--|--19~------------12--15--|
B-------|----------------17S--20------|-------------------------|
G-------|-----------------------------|-------------------------|
D-------|-----------------------------|-------------------------|
A-------|-----------------------------|-------------------------|
E-------|-----------------------------|-------------------------|


   |---3---|                            |---3---|        
   S   S   S  E   E   S   S   Q     S   T   T   T  S  S  
--12h-15p-12--L---L-------------------------------------|
---------------------12h-15p-12----13p-12h-13p-12-------|
--------------------------------------------------14-12-|
--------------------------------------------------------|
--------------------------------------------------------|
--------------------------------------------------------|


     S   S    S  S  S     S   S  S  Q.      S   S  
e|-----------15-----------------------------------|
B|--------------15--------------------------------|
G|--14b--Lpb-------14pbr--Lp-12----12-------------|
D|------------------------------14---------12s-14-|
A|------------------------------------------------|
E|------------------------------------------------|


     Q     T   T   S  T   T   S  Q    S  S  S S  
e|----------------------------------------------|
B|----------------------------------------------|
G|----------------------------------------------|
D|--12----12s-14p-12-----------------------10-9-|
A|-------------------14p-12p-10-12----7-10------|
E|----------------------------------------------|


    E   E   Q     E  S  S S  S S  S  
e|----------------------------------|
B|----------------------------------|
G|------------------------7---------|
D|--7----------------7h-9---10-9----|
A|-----10--10-----L--------------10-|
E|----------------------------------|


    |--3--|                       |---3---|        
  S T  T  T S S S S  S S Q     S  T   T   T  S  S  
----------------5--------7----12------------------|
--7-5h-7p-5-------8p-7-5---------12h-15p-12-------|
------------7-5-----------------------------14-12-|
--------------------------------------------------|
--------------------------------------------------|
--------------------------------------------------|


                                             |---3---|                   
   Q.        S  S  Q     Q          Q     S  T   T   T  S  S  Q    Q     
---------------15-17----17br----|--17-----L-15h-17p-15-14---------------|
--17br------17------------------|-------------------------17-15---------|
--------------------------------|---------------------------------------|
--------------------------------|---------------------------------------|
--------------------------------|---------------------------------------|
--------------------------------|---------------------------------------|

             C            D          C                 Am       D    C D
  Can't you see it in my eyes  Well this might be our last goodbye

G     D   Em         D      C D Em
  Car    rie     car   rie

              Dsus4       D     G     D      G      D     C D Em
  things they change my friend     Car  rie     car  rie

              Dsus4     D   Am  
  maybe we'll meet        again


 [FILL 1 & OUTRO}
    H.           E  E     E  E  E  E  E  E  E  E   
e|---------------------|--------------------------|
B|---------------------|--------------------------|
G|--7------------L--7--|--7--5--5--4--4--------7--|
D|--7------------L-----|-----------------5--5-----|
A|--5------------L-----|--------------------------|
E|---------------------|--------------------------|


    E  E  E  E  E  E  E  E     H.           Q             
e|--------------------------|--------------------|-------|
B|--------------------------|--------------------|-------|
G|--7--5--5--4--4-----------|--------------------|-------|
D|-----------------5--5--7--|--5-----------------|-------|
A|--------------------------|--------------------|-------|
E|--------------------------|--------------------|-------|


When lights go down




  [FILL 2]
    H        S  S  S S S  S  S  S    Q    Q    H                                 
e|--------------------------------|---------------------|-----------|-----------|
B|--------------------------------|---------------------|-----------|-----------|
G|-----------7s-9s-7--------------|---------------------|-----------|-----------|
D|-------------------9-7s-9s-7s-5-|---------------------|-----------|-----------|
A|--------------------------------|--7------------------|-----------|-----------|
E|--------------------------------|---------------------|-----------|-----------|


  [FILL 3]
    H        S  S  S S  S  S  S S         H        H              
e|--------------------------------|----|--------------------|----|
B|--------------------------------|----|--------------------|----|
G|-----------7h-9p-7--------------|----|--------------------|----|
D|-------------------9p-7h-9p-7-5-|----|-----------7--------|----|
A|--------------------------------|----|-----------5--------|----|
E|--------------------------------|----|--------------------|----|




Duration Legend
---------------
W - whole
H - half
Q - quarter
E - 8th
S - 16th
T - 32nd
X - 64th
. - note dotted
|-n-|  - n-tuplets


Tablature Legend
----------------
L - tied note
x - dead note
g - grace note
(n) - ghost note
> - accentuded note
NH - natural harmonic
AH - artificial harmonic
TH - tapped harmonic
SH - semi harmonic
PH - pitch harmonic
h - hammer on
p - pull off
b - bend
br - bendRelease
pb - preBend
pbr - preBendRelease
brb - bendReleaseBend
\n/ - tremolo bar dip
\n - tremolo bar dive
-/n - tremolo bar Release up
/n\ - tremolo bar inverted dip
/n - tremolo bar return
-\n - tremolo bar Release down
S - shift slide
s - legato slide
/ -  slide into from below or out of upwards
\ -  slide into from above or out of downwards
~ - vibrato
W - wide vibrato
tr - trill
TP - tremolo picking
T - tapping
S - slap
P - pop
< - fade in
^ - brush up
v - brush down
Suggest correction
comments
print report bad tab
1 comment total.
0 reply
Izole 21 Jul 29, 2014 06:33 AM

G D Em D C D Em
Car rie car rie
""This sounds better as an Em""
""Like in the previous 'Carrie-part'""
v
Dsus4 D G D [G] D C D Em
things they change my friend Car rie car rie

guest
You may want to rate the tab now too:
select rating
Wanna post a correction for this tab? Suggest correction