Oops, an error
Loading. Please wait.

Coast To Coast Tab

version 1
version 1

Solo

Interactive

3,891 views 3 this week
no commentswrite comment
1 2 3 4 5
3 more votes to show rating
add to favorites
launch autoscroll
font size
0
reset
how to read this tab
guitar tuner
Autoscroll
slow
fast
+/-
esc
set tempo
stop
Help us to improve Ultimate-Guitar.com Take our survey!
×
Author
-------15-------------|
15b17-----15b17-r-p12-|
----------------------|
----------------------|
----------------------|
----------------------|

------------------------------------------------------|
15v--13b15-r-12h13-12v-----10-12-12b13--12b13-r-10----|
------------------------12-------------------------12-|
------------------------------------------------------|
------------------------------------------------------|
------------------------------------------------------|

--------------------------------------------|
--------------------------------------------|
----11b12-r--12b14-r----7-------------------|
12--------------------9----9b10--9v--7------|
---------------------------------------10-5-|
--------------------------------------------|

---------14-17--17b19-17b19-r-p15--------17-19-|
------15--------------------------17--20-------|
---14------------------------------------------|
16---------------------------------------------|
-----------------------------------------------|
-----------------------------------------------|

19b20--19b20-r-17--------------------------|
------------------20------19b20-r--20b22---|r
---------------------19v-------------------|
-------------------------------------------|
-------------------------------------------|
-------------------------------------------|

----------20b22-20-----------------------------|
22b24--r------------------------------------15-|
-----------------------------------14-16-17----|
--------------------------14-16-17-------------|
--------------------15-17----------------------|
-----------------------------------------------|

----------------------------------------------------14-|
------------------------17--------------------15-17----|
---------------16-17-19--------------14-16-17----------|
------16-17-19--------------14-16-17-------------------|
17-19--------------------------------------------------|
-------------------------------------------------------|

---------------------------------------------17-----|
---------------------------17-19-20-17-19-20-----20-|
---------16-17-19-16-17-19--------------------------|
16-17-19--------------------------------------------|
----------------------------------------------------|
----------------------------------------------------|
Suggest correction
Give kudos to tab author, rate the tab!
1 2 3 4 5
comments
print report bad tab
guest
You may want to rate the tab now too:
select rating
Wanna post a correction for this tab? Suggest correction