Oops, an error
Loading. Please wait.

Halfway To Heaven Tab

version 2
version 2

Whole song

Interactive

1,259 views 3 this week
no commentswrite comment
1 2 3 4 5
please rate
add to favorites
launch autoscroll
font size
0
reset
how to read this tab
guitar tuner
Tab Pro tools
  • play this tab
  • loop segment
  • change instrument
  • show fretboard
  • metronome
×
Best way to learn
"Halfway To Heaven"
Autoscroll
slow
fast
+/-
esc
set tempo
stop
Europe
Song: Halfway To Heaven
Tabbed By: Aydan Watkins, Slavo Klein

This is a great song that i am really working hard on. Please rate after
looking. This is quite a hard song so I'll update it as soon as possible...
Please don't forget to rate!

Intro: (Echo Effect)

E: -----------------0-0-0--3-3-3-3----|
B: -3-3-3--2-2-2-2--0-0-0--3-3-3-3----|
G: -2-2-2--2-2-2-2--------------------|
D: -----------------------------------|
A: -----------------------------------|
E: -----------------------------------|

play this part with tremolo


E: -----------------0-0-0--3-3-3-3----|
B: -3-3-3--2-2-2-2--0-0-0--3-3-3-3----|
G: -2-2-2--2-2-2-2--------------------|
D: -----------------------------------|
A: -----------------------------------|
E: -----------------------------------|


intro-solo


E: -14b--h17-12~---15-15p14p12------14-17---17h19p17~---------|
B: ----------------------------15-----------------------------|
G: -----------------------------------------------------------|
D: -----------------------------------------------------------|
A: -----------------------------------------------------------|
E: -----------------------------------------------------------|


fastest part

E: ----17--17----19-17-14-12-----14-12-------------------------|
B: -17b--17--19--------------15--------15----------------------|
G: ------------------------------------------------------------|
D: ------------------------------------------------------------|
A: ------------------------------------------------------------|
E: ------------------------------------------------------------|

E: -14b--h17-12~---15-15p14p12--------------17----------------|
B: ----------------------------17-15----/15----15~------------|
G: -----------------------------------------------------------|
D: -----------------------------------------------------------|
A: -----------------------------------------------------------|
E: -----------------------------------------------------------|

Verse 1:


Another day has come Can't face it on my own
I almost let you walk away and I guess I should have known

  D    A    Em     G           D    A    Em    G
I'll give it to you straight 'Cause some things just can't wait

 D     A    Em     G                Em            G	A
I' ve got to make it up to you And I'll pray it's not too late


 		G              A
'Cause when you look at me with those sad blue eyes
   D	    A		G     Em          G	A
It stops me cold and I realize You're all I need tonight

Chorus:

      D       A        E        G
We're halfway to heaven Lyin' beside you on a night so still


      D       A        E        G
We're halway to heaven I ask you if you'll stay and baby Say you will

Verse 2:

  D    A    G    A           D    A    G    A
So what's a man to do To get it through to you

  D    A    G    A           D    A    G    A
Another lost and lonely night Would break this heart in two


	G	           A
So let's take a chance And it'll be allright
    D	     A	      G		Em	 G	A
Just put your trust in me toniht Girl we're almost there

Chorus 2:

      D       A       E       G
We're halfway to heaven There's something magic 'Bout the way you kiss

      D       A       E       G
We're halfway to heaven Runnin' with you baby On a a night like this

      D       A       E       G
We're halfway to heaven I never dreamed that I could get this high

      D       A       E       G
We're halfway to heaven Girl I couldn't leave you Even if I tried

Bridge: (Still Working on this)

B	  F		 C  F  C
You got me captured in a crazy spin
B	  	F                     C  F  C
You got me so I just Can't tell the shape I'm in

Solo background:	B F C

Chorus:
      D       A       E       G
We're halfway to heaven There's something magic 'Bout the way you kiss

      D       A       E       G
We're halfway to heaven Runnin' with you baby On a a night like this

      D       A       E       G
We're halfway to heaven I never dreamed that I could get this high

      D       A       E       G
We're halfway to heaven Girl I couldn't leave you Even if I tried

2X
D	A 	E	G
D	A 	H	G	D A
comments
We did not receive enough feedback on this tab! Please rate:
print report bad tab
1 2 3 4 5
I want to post or [tab]
guest
You may want to rate the tab now too:
select rating
Please do not post tabs as comments. Select "correction" instead!