Oops, an error
Loading. Please wait.

Heart Of Stone Tab

version 2
version 2

Whole song

Interactive

1,310 views 6 this week
no commentswrite comment
1 2 3 4 5
please rate
add to favorites
launch autoscroll
font size
0
reset
how to read this tab
guitar tuner
Autoscroll
slow
fast
+/-
esc
set tempo
stop
Help us to improve Ultimate-Guitar.com Take our survey!
×
Author
Title: Heart Of Stone
By: Europe
Tabbed By: Thobias B aka TeebZ 08/11 -04


Intro
e|-----------------------------------------------|
B|-----------------------------------------------|
G|--7-7-9-9---9-----7----------------------------|
D|--7-7-9-9---7-----5-----5-----5:---------------|
A|--5-5-7-7-----0-0---0-0-7-0-0-7:---------------|
E|-----------------------------------------------|


e|-----------------------------------------------|
B|-----------------------------------------------|
G|-----------------------------------------------|
D|------2----------------------------------------|
A|--0-3------------------------------------------|
E|--------3--------------------------------------|



Verse       |------PM------|
e|-----------------------------------------------|
B|-----------------------------------------------|
G|--7-7-9-9--------------------------------------|
D|--7-7-9-9--9-9--9-9--9-9-----------------------|
A|--5-5-7-7--7-7--7-7--7-7-----------------------|
E|-----------------------------------------------|


e|-----------------------------------------------|
B|-----------------------------------------------|
G|--7-7-5-5--5------7--7-2-----------------------|
D|--7-7-5-5--5-5--5-7--7-2-2---------------------|
A|--5-5-3-3--3-5--5-5--5-0-2---------------------|
E|-------------3--3--------0---------------------|


e|-----------------------------------------------|
B|-----------------------------------------------|
G|-----------------------------------------------|
D|--------------0--------------------------------|
A|--------0-2-3---2------------------------------|
E|--0-2-3----------------------------------------|



Chorus
e|-----------------------------------------------|
B|-----------------------------------------------|
G|--5-7----5--5-7-------9\-------9\--------------|
D|--5-7--5-5--5-7-------9\-------9\--------------|
A|--3-5--5-3--3-5-------7\-------7\--------------|
E|-------3---------0-00-----0-00-----------------|

                   |-------PM------|
e|-----------------------------------------------|
B|-----------------------------------------------|
G|--5-7----5--4:----4-4-4-4-4-4-4-4--------------|
D|--5-7--5-5--4:----4-4-4-4-4-4-4-4--------------|
A|--3-5--5-3--2:----2-2-2-2-2-2-2-2--------------|
E|-------3---------------------------------------|

Suggest correction
What's this?
You can suggest a correction to this tab. Community and Mods will review your correction and vote to approve or reject it.
comments
We did not receive enough feedback on this tab! Please rate:
print report bad tab
1 2 3 4 5
guest
You may want to rate the tab now too:
select rating
Please do not post tabs as comments. Select "correction" instead!