Oops, an error
Loading. Please wait.

Last Look At Eden Bass Tab

version 1
version 1

Whole song

Interactive

1,104 views 1 this week
no commentswrite comment
1 2 3 4 5
please rate
add to favorites
launch autoscroll
font size
0
reset
guitar tuner
Autoscroll
slow
fast
+/-
esc
set tempo
stop
Help us to improve Ultimate-Guitar.com Take our survey!
×
Author
Difficulty
Tuning
tonedeafidiot 39,206
intermediate
D A D G B E
#----------------------------------PLEASE NOTE---------------------------------#
#This file is the author's own work and represents their interpretation of the #
#song. You may only use this file for private study, scholarship, or research. #
#------------------------------------------------------------------------------#

LAST LOOK AT EDEN (Bassline)
As recorded by Europe
(From the 2009 Album LAST LOOK AT EDEN)

Transcribed by unregistered
	

Words and Music by Europe

Gtr I (D A D G) - 'Picked Bass'
Gtr II (E A D G) - 'Timpani'
Gtr III (E A D G) - 'Reverse Cymbal'

  Q=78
 2/4                               4/4
  Gtr I
  <
  H                                 W
|---------------------------------|----------|
|---------------------------------|----------|
|---------------------------------|----------|
|-2-------------------------------|-2--------|
|
| Gtr II
| T T T T T T T T T T T T T T T T   Q  H.
|---------------------------------|----------|
|---------------------------------|----------|
|---------------------------------|----------|
|-0-0-0-0-0-0-0-0-0-0-0-0-0-0-0-0-|-0--------|


  W                                      W
|--------------------------------------|------------|
|--------------------------------------|------------|
|--------------------------------------|------------|
|-2------------------------------------|-2----------|
|
| H    T T T T T T T T T T T T T T T T   Q  H.
|--------------------------------------|------------|
|--------------------------------------|------------|
|--------------------------------------|------------|
|-0----0-0-0-0-0-0-0-0-0-0-0-0-0-0-0-0-|-0----------|
|
| Gtr III
| W                                      W
|--------------------------------------|------------|
|--------------------------------------|------------|
|--------------------------------------|------------|
|--------------------------------------|------------|


  W
|------------------------------------------------|
|------------------------------------------------|
|------------------------------------------------|
|-2----------------------------------------------|
|
| T  Q..   T T T T T T T T T  T T T T T T T T
|------------------------------------------------|
|------------------------------------------------|
|------------------------------------------------|
|-0----------0-0-0-0-0-0-0-0--0-0-0-0-0-0-0-0----|
|
| H.                          Q
|----------------------------21------------------|
|------------------------------------------------|
|------------------------------------------------|
|------------------------------------------------|


  S S S S S S Q  E S S S S
|--------------------------|
|--------------------------|
|------------------x-x---x-|
|-0-2-2-2-2---2--2---------|


  S S S S S S E. S E S S S S   S S S S S S Q  E S S S S
|----------------------------|--------------------------|
|----------------------------|--------------------------|
|----------------3-3-3-3-3-3-|------------------x-x---x-|
|-0-2-2-2-2---2--------------|-0-2-2-2-2---2--2---------|


  S S S S S S E. S E S S S S
|----------------------------|
|----------------------------|
|----------------3-3-3-3-3-3-|
|-0-2-2-2-2---2--------------|


  S S S S S S Q  E S S S S   S S S S S S Q  E S S S S
|--------------------------|--------------------------|
|--------------------------|--------------------------|
|------------------x-x---x-|------------------x-x---x-|
|-0-2-2-2-2---2--2---------|-0-2-2-2-2---2--2---------|


  E E E E E E E E   S S S S S S Q  E S S S S
|-----------------|--------------------------|
|-----------------|--------------------------|
|-----------------|------------------x-x---x-|
|-3-3-3-3-0-0-0-0-|-0-2-2-2-2---2--2---------|


  S S S S S S E. S E S S S S   S S S S S S Q  E S S S S
|----------------------------|--------------------------|
|----------------------------|--------------------------|
|----------------3-3-3-3-3-3-|------------------x-x---x-|
|-0-2-2-2-2---2--------------|-0-2-2-2-2---2--2---------|


  S S S S S S Q  E S S S S   E E E E E E E E
|--------------------------|-----------------|
|--------------------------|-----------------|
|------------------x-x---x-|-----------------|
|-0-2-2-2-2---2--2---------|-3-3-3-3-0-0-0-0-|


  S S S S S S Q  E S S S S   S S S S S S Q  E S S S S
|--------------------------|--------------------------|
|--------------------------|--------------------------|
|------------------x-x---x-|------------------x-x---x-|
|-0-2-2-2-2---2--2---------|-0-2-2-2-2---2--2---------|


  E E E E S S E E E   E E E E S S E Q    E E E E S S E E E   E E E E E E E E
|-------------------|------------------|-------------------|------------------|
|-------------------|------------------|-------------------|------------------|
|-2-2-2-2-2---------|-3-3-3-3-3-0-0-0--|-2-2-2-2-2---------|-3-3-3-3----------|
|-----------3-3-3-3-|------------------|-----------3-3-3-3-|---------0-0-2-2--|


  E E E E E E E E   E E E E E E E E   E E E E E E E E   E E E E E E E E
|-----------------|-----------------|-----------------|-----------------|
|-----------------|-----------------|-----------------|-----------------|
|-----------------|-----------------|-3-3-3-3-3-3-3-3-|-----------------|
|-0-0-0-0-0-0-0-0-|-2-2-2-2-2-2-2-2-|-----------------|-5-5-5-5-5-5-5-5-|


  E E E E E E E E   E E E E E E E E   E E E E E E E E   E E E E E E E E
|-----------------|-----------------|-----------------|-----------------|
|-----------------|-----------------|-----------------|-----------------|
|-----------------|-----------------|-3-3-3-3-3-3-3-3-|-----------------|
|-0-0-0-0-0-0-0-0-|-2-2-2-2-2-2-2-2-|-----------------|-5-5-5-5-5-5-5-5-|


  S S S S S S Q  E S S S S
|--------------------------|
|--------------------------|
|------------------x-x---x-|
|-0-2-2-2-2---2--2---------|


  S S S S S S E. S E S S S S   S S S S S S Q  E S S S S
|----------------------------|--------------------------|
|----------------------------|--------------------------|
|----------------3-3-3-3-3-3-|------------------x-x---x-|
|-0-2-2-2-2---2--------------|-0-2-2-2-2---2--2---------|


  S S S S S S Q  E S S S S   E E E E E E E E   S S S S S S Q  E S S S S
|--------------------------|-----------------|---------------------------|
|--------------------------|-----------------|---------------------------|
|------------------x-x---x-|-----------------|------------------x-x---x--|
|-0-2-2-2-2---2--2---------|-3-3-3-3-0-0-0-0-|-0-2-2-2-2---2--2----------|


  Q  Q  S S E Q    Q  Q  S S E Q    Q  Q  S S E Q    Q  Q  Q  Q
|----------------|----------------|----------------|--------------|
|----------------|----------------|----------------|--------------|
|-2--2--2--------|-3--3--3-0-0-0--|-2--2--2--------|-3--3---------|
|---------3-3-3--|----------------|---------3-3-3--|-------0--2---|


  E E E E E E E E   E E E E E E E E   E E E E E E E E   E E E E E E E E
|-----------------|-----------------|-----------------|-----------------|
|-----------------|-----------------|-----------------|-----------------|
|-----------------|-----------------|-3-3-3-3-3-3-3-3-|-----------------|
|-0-0-0-0-0-0-0-0-|-2-2-2-2-2-2-2-2-|-----------------|-5-5-5-5-5-5-5-5-|


  E E E E E E E E   E E E E E E E E   E E E E E E E E   E E E E E E E E
|-----------------|-----------------|-----------------|-----------------|
|-----------------|-----------------|-----------------|-----------------|
|-----------------|-----------------|-3-3-3-3-3-3-3-3-|-----------------|
|-0-0-0-0-0-0-0-0-|-2-2-2-2-2-2-2-2-|-----------------|-5-5-5-5-5-5-5-5-|


  S S S S S S Q  E S S S S   S S S S S S Q  Q.
|--------------------------|---------------------|
|--------------------------|---------------------|
|------------------x-x---x-|---------------------|
|-0-2-2-2-2---2--2---------|-0-2-2-2-2---2--2----|


  S E S E E S E S. E..   S E S E S E S Q.
|----------------------|--------------------|
|----------------------|--------------------|
|-------3-------3------|-------3-------1----|
|-0-0-0---0-0-0--------|-0-0-0---0-0-0------|


  S E S E E S E S. E..   S E S E S E S Q.
|----------------------|--------------------|
|----------------------|--------------------|
|-------3-------3------|-------3-------1----|
|-0-0-0---0-0-0--------|-0-0-0---0-0-0------|


  S S S S S S Q  E S S S S   S S S S S S Q  E S S S S   E E E E E E E E
|--------------------------|--------------------------|------------------|
|--------------------------|--------------------------|------------------|
|------------------x-x---x-|------------------x-x---x-|------------------|
|-0-2-2-2-2---2--2---------|-0-2-2-2-2---2--2---------|-3-3-3-3-0-0-0-0--|


  S S S S S S Q  E S S S S
|--------------------------|
|--------------------------|
|------------------x-x---x-|
|-0-2-2-2-2---2--2---------|


  S S S S S S Q  E S S S S   S S S S S S Q  E S S S S
|--------------------------|--------------------------|
|--------------------------|--------------------------|
|------------------x-x---x-|------------------x-x---x-|
|-0-2-2-2-2---2--2---------|-0-2-2-2-2---2--2---------|


  E E E E E E E E   S S S S S S Q  E S S S S
|-----------------|--------------------------|
|-----------------|--------------------------|
|-----------------|------------------x-x---x-|
|-3-3-3-3-0-0-0-0-|-0-2-2-2-2---2--2---------|


  E E E E E E E E   E E E E E E E E   E E E E E E E E   E E E E E E E E
|-----------------|-----------------|-----------------|-----------------|
|-----------------|-----------------|-----------------|-----------------|
|-----------------|-----------------|-3-3-3-3-3-3-3-3-|-----------------|
|-0-0-0-0-0-0-0-0-|-2-2-2-2-2-2-2-2-|-----------------|-5-5-5-5-5-5-5-5-|


  E E E E E E E E   E E E E E E E E   E E E E E E E E   E E E E E E E E
|-----------------|-----------------|-----------------|-----------------|
|-----------------|-----------------|-----------------|-----------------|
|-----------------|-----------------|-3-3-3-3-3-3-3-3-|-----------------|
|-0-0-0-0-0-0-0-0-|-2-2-2-2-2-2-2-2-|-----------------|-5-5-5-5-5-5-5-5-|


  E E E E E E E E   E E E E E E E E   E E E E E E E E   E E E E E E E E
|-----------------|-----------------|-----------------|-----------------|
|-----------------|-----------------|-----------------|-----------------|
|-----------------|-----------------|-3-3-3-3-3-3-3-3-|-----------------|
|-0-0-0-0-0-0-0-0-|-2-2-2-2-2-2-2-2-|-----------------|-5-5-5-5-5-5-5-5-|


  E E E E E E E E   E E E E E E E E   S S S S S S Q  E Q
|-----------------|-----------------|---------------------|
|-----------------|-----------------|---------------------|
|-----------------|-----------------|---------------------|
|-0-0-0-0-0-0-0-0-|-0-0-0-0-0-0-0-0-|-2-2-2-2-2---2--2----|


  S S S S S S E. S E S S S S   S S S S S S Q  E Q
|----------------------------|---------------------|
|----------------------------|---------------------|
|----------------3-3-3-3-3-3-|---------------------|
|-0-2-2-2-2---2--------------|-2-2-2-2-2---2--2----|


  S S S S S S E. S E S S +E
|------------------------------*|
|------------------------------*|
|------------------3-3-3-(3)\--*|
|-0-2-2-2-2---2----------------*|



Duration Legend
---------------
W - whole; H - half; Q - quarter; E - 8th; S - 16th; T - 32nd; X - 64th; a - acciaccatura
+ - note tied to previous; . - note dotted; .. - note double dotted
Uncapitalized letters represent notes that are staccato (1/2 duration)
Irregular groupings are notated above the duration line
Duration letters will always appear directly above the note/fret number it represents the
duration for.  Duration letters with no fret number below them represent rests.  Multi-
bar rests are notated in the form Wxn, where n is the number of bars to rest for.  Low
melody durations appear below the staff

Tablature Legend
----------------
 h   - hammer-on
 p   - pull-off
 b   - bend
 pb  - pre-bend
 r   - bend release (if no number after the r, then release immediately)
 /\  - slide into or out of (from/to "nowhere")
 s   - legato slide
 S   - shift slide
 - natural harmonic
[n]  - artificial harmonic
n(n) - tapped harmonic
 ~   - vibrato
 tr  - trill
 T   - tap
 TP  - trem. picking
 PM  - palm muting
\n/  - tremolo bar dip; n = amount to dip
 \n  - tremolo bar down
 n/  - tremolo bar up
/n\  - tremolo bar inverted dip
 =   - hold bend; also acts as connecting device for hammers/pulls
 <> - volume swell (louder/softer)
 x   - on rhythm slash represents muted slash
 o   - on rhythm slash represents single note slash

Misc Legend
-----------
 |  - bar
||  - double bar
||o - repeat start
o|| - repeat end
*|  - double bar (ending)
 :  - bar (freetime)
 $  - Segno
 &  - Coda
Tempo markers -  = BPM(8/16=s8/s16), where s8 = swing 8ths, s16 = swing 16ths

Suggest correction
What's this?
You can suggest a correction to this tab. Community and Mods will review your correction and vote to approve or reject it.
comments
We did not receive enough feedback on this tab! Please rate:
print report bad tab
1 2 3 4 5
guest
You may want to rate the tab now too:
select rating
Please do not post tabs as comments. Select "correction" instead!