Oops, an error
Loading. Please wait.

New Love In Town Tab

version 1
version 1

Whole song

Interactive

7,176 views 3 this week
no commentswrite comment
1 2 3 4 5
please rate
add to favorites
launch autoscroll
font size
0
reset
how to read this tab
guitar tuner
Tab Pro tools
  • play this tab
  • loop segment
  • change instrument
  • show fretboard
  • metronome
×
Best way to learn
"New Love In Town"
Autoscroll
slow
fast
+/-
esc
set tempo
stop
Difficulty
intermediate
New Love in Town
Europe

********** Tabbed by Pedahl **********
(I think I got most of i right.............)
(http://www.youtube.com/watch?v=S0vGjQmnLhs)


h - hammer-on
p - pull-off
/\ - slide up/down
^ - half bend
^^ - full bend
~  - vibrato

Normal tuning

Intro (clean)

E|---------------|----------------|----------------|----------------|
B|---------------|----------------|----------------|----------------|
G|---------------|----------------|----------------|----------------|
D|---------------|----------------|----------------|----------------|
A|7-5------------|----5-7--------5|7-5-------------|----------------|
E|----7-8--------|8-7-----------7-|----7-8---------|8-7-3-0---------|

Nothing looks.....
E|---------------|----------------|
B|---------------|----------------|
G|---------------|----------------|
D|---------------|----------------|  3x
A|7-5------------|---------------5|
E|----7-8--------|8-7-3-0-------7-|

                  Am               D    Bm
E|---------------|5---------------|2----2----------|----------------|
B|---------------|5---------------|3----3----------|----------------|
G|---------------|5---------------|2----4----------|----------------|
D|---------------|7---------------|0----4----------|----------------|
A|7-5------------|7---------------|x----2----------|----------------|
E|----7-8--------|5---------------|x----x----------|----------------|

            Em C            G           D
Cause tonight,    there’s a new love in town
Em      C       G                   D   
Waking emotion, I thought I’d never find
         Em D         C#m      Am
Yes tonight   how you turned it around

I wanna tell.....                  (solo 1)
E|---------------|----------------|----------------|----------------|
B|---------------|----------------|----------------|----------------|
G|---------------|----------------|----------------|----------------|
D|---------------|----------------|----------------|----------------|
A|7-5------------|----5-7--------5|7-5-------------|----------------|
E|----7-8--------|8-7-----------7-|----7-8---------|8-7-3-0---------|

Solo 1
E|------------------------10^^~----|--------------------------------|
B|-------10^^-10h12p10-------------|-----10-------------------------|
G|9---12--------------12-----------|9-12----12-9-9~-----------------|
D|---------------------------------|------------------12-9----------|
A|---------------------------------|-----------------------12-10----|
E|---------------------------------|-----------------------------12-|

Verse 2

Bridge
D                       Am           G
 And everyone I met has made me what I am today
D                            Am      G
 And every choice I made has led me here today
D                          Am   Bm         Em
 And every time I see your face I find my way

Solo
E|---------------|----------------|-------/5-3-----|----------------|
B|5---875~-------|----------------|-------/5-3--3--|--3-5-3~--------|
G|-------------74p7~--------------|-----------/4-42|4---------------|
D|---------------|----7\5/7~--54--|----------------|----------------|
A|---------------|--------------75|577~------------|----------------|
E|---------------|----------------|----------------|----------------|

E|--------------------10-|------------------------|
B|12^^^-------1210810^^--|10^108---10^108---------|
G|-----------------------|------9--------99~--12--|
D|-----------------------|------------------------|
A|-----------------------|------------------------|
E|-----------------------|------------------------|

E|--------14^--14--12~---|17^^17-15-17~-----------|------------------------|
B|------12---------------|------------------------|15^^-15----1517~--------|
G|---1214----------------|------------------------|---------16-------------|
D|1214-------------------|------------------------|------------------------|
A|-----------------------|------------------------|------------------------|
E|-----------------------|------------------------|------------------------|
comments
We did not receive enough feedback on this tab! Please rate:
print report bad tab
1 2 3 4 5
I want to post or [tab]
guest
You may want to rate the tab now too:
select rating
Please do not post tabs as comments. Select "correction" instead!