Oops, an error
Loading. Please wait.

Open Your Heart Tab

version 2
version 2

Solo

Whole song

Interactive

2,698 views 6 this week
no commentswrite comment
1 2 3 4 5
please rate
add to favorites
launch autoscroll
font size
0
reset
how to read this tab
guitar tuner
Tab Pro tools
  • play this tab
  • loop segment
  • change instrument
  • show fretboard
  • metronome
×
Best way to learn
"Open Your Heart"
Autoscroll
slow
fast
+/-
esc
set tempo
stop
Contributor
Difficulty
advanced
                      "Open Your Heart" by Europe
                       "Wings Of Tomorrow album"


Open Your Heart 1984 Version John Norum solo
Transcribed by: Renan Vickysider (lucacarrico@hotmail.com)
Brazilian Europe Cover Guitarist

b - bend
h - hammering on
p - pull off
r - release
~ - vibrato


E||-------------------------------------------------------------------------|
B||-------------------------------------------------------------------------|
G||--14r---14~---11h12p11----11--------------------------------11-12--11-12-|
D||-----------------------12-----12----14--11--12------11-12-14-----14------|
A||------------------------------------------------14-----------------------|
E||-------------------------------------------------------------------------|


-----------------------12-------15-14~---------|---------------------------|
-----12----14-12-14-15----14-15----------10r---|--10~---10--7--------------|
--14----12-------------------------------------|---------------9--7--9-----|
-----------------------------------------------|------------------------9--|
-----------------------------------------------|---------------------------|
-----------------------------------------------|---------------------------|


---------9---10-7-9----7---9---10-|--7-9----7---9---10-7-9----------|
-------7---7--------10---7---7----|------10---7---7--------10h11h12-|
--7~------------------------------|---------------------------------|
----------------------------------|---------------------------------|
----------------------------------|---------------------------------|
----------------------------------|---------------------------------|


--12b-------12--------|--12--10------10------------------------|
----------------------|----------14------14--12--10--12~-------|
----------------------|----------------------------------------|
----------------------|----------------------------------------|
----------------------|----------------------------------------|
----------------------|----------------------------------------|


-----10-12-14-10-12-14-15-12-14-15-17-|--17r---17r---17b---17b---|
--14----------------------------------|--------------------------|
--------------------------------------|--------------------------|
--------------------------------------|--------------------------|
--------------------------------------|--------------------------|
--------------------------------------|--------------------------|


--17b-17------------------------|--------------------------------|
----------22p-15r-15--14--15~---|--14----------------14-15----14-|
--------------------------------|------16--16~-------------16----|
--------------------------------|--------------------------------|
--------------------------------|--------------------------------|
--------------------------------|--------------------------------|


--------14----14-15--17--17b-17~-||
--15-17----17--------------------||
---------------------------------||
---------------------------------||
---------------------------------||
---------------------------------||
comments
We did not receive enough feedback on this tab! Please rate:
print report bad tab
1 2 3 4 5
I want to post or [tab]
guest
You may want to rate the tab now too:
select rating
Please do not post tabs as comments. Select "correction" instead!