Oops, an error
Loading. Please wait.

Prisoners In Paradise tab

version 1
version 1

Whole song

Interactive

by Europe
17,991 views 33 this week
1 commentread comment
1 2 3 4 5
x 3
add to favorites
×
Save as Personal and add changes to this tab that will be seen only by you. Learn more ›
×
You can save this tab as Personal to edit and correct it or add notes. All changes will be seen only by you. Learn more »
launch autoscroll
font size
0
reset
how to read this tab
guitar tuner
backing track
0:00
0:00
edit
Autoscroll
slow
fast
+/-
esc
set tempo
stop
Just Listen to the song for timing. And "7*" means it is still banded as the note 
b'fore, so hit it and than release....


|-------5--7--7b---7*r--7--5-----------------------------5v----5------------------------------|
|---8--------------------------8--6--8---5------5--6--8-----------8--6v---5-----5--6p5--------|
|--------------------------------------------5-------------------------------7-----------7----|
|---------------------------------------------------------------------------------------------|
|---------------------------------------------------------------------------------------------|
|---------------------------------------------------------------------------------------------|


|-------5--7--7b---7*r--7--5----------------------------------------7v--------8-8v----|
|---8--------------------------8--6--8---5------5--6--8---10v-------------------------|
|--------------------------------------------5----------------------------------------|
|-------------------------------------------------------------------------------------|
|-------------------------------------------------------------------------------------|
|-------------------------------------------------------------------------------------|



(**)

|--5--5--5----5------1----8------3---3---|
|--5--5--5----5------1----8------3---3---|
|--5--5--5----5------2----8------4---4---|
|--7--5--7----7------3----10-----5---5---|
|--7--5--7----7------3----10-----5---5---|
|--5--5--5----5------1----8------3---3---|

|--5--5--5----5------1-----------3---3---|
|--5--5--5----5------1-----------3---3---|
|--5--5--5----5------2-----------4---4---|
|--7--5--7----7------3-----------5---5---|
|--7--5--7----7------3-----------5---5---|
|--5--5--5----5------1-----------3---3---|



C  F  C  a G

Julie's got the word today			C  F
She lost her job just one last pay      	C  a G
Life don't come easy anymore			C  F  C  a G	
Still strugglin'on by herself
Got a picture of Jimmy There on the shelf
And she looks at him and says Why did we let it go

I know that sometimes baby			a  e
We didn't see things eye-to-eye			F  C
But I got just one question			a  e
Did we have to say goodbye			F  G

Just like prisoners in paradise			C  F
Still far from heaven's door			C  F
We had it all but still we			C  a
Wanted more					F  G
Now I realize that I can't			F  G
Turn back the future's here			a C  F 
To stay but hey			
We're just children of tomorrow			C  G
Hangin' on to yesterday     			F  (**)

Jimmy still recalls the night
When he took his guitar
And headed on out
To find the big time
That was his dream
He gave up his past
And made it alright
But there's something missin'
In his heart tonight
Sometimes what you want
Ain't what you need

He misses drivin' down
To the lake at night
Holdin' his baby
In his arms so tight
Ain't it hard to find illusions
When you're livin' in a memory

Just like prisoners in paradise			C  F
So close but yet so far				C  F
There will come a time				C  
No matter who you are				a  F  G	
When you ask yourself				F
Was it right or wrong				G
For me to turn away but hey			a C  F
We're just children of tomorrow			C  G
Hangin' on to yesterday				F  C 





Any comments?? just write bartosz.fogt@yahoo.com
Enjoy ;)

            
            
Suggest correction
Creating personal tab
Creating personal tab
You can edit any tab online and save it as your Personal.

You can edit, replace or remove any tab part or add personal notes – all changes will be seen only by you.

Personal tabs can be accessed anytime from any device, even offline.
Learn more »
Give kudos to tab author, rate the tab!
1 2 3 4 5
comments
print report bad tab
1 comment total.
0 reply
andostro 10 Sep 02, 2016 10:18 AM

miss some parts but it's not bad tab

guest
Wanna post a correction for this tab? Suggest correction