Oops, an error
Loading. Please wait.

Superstitious Tab

version 1
version 1

Whole song

Interactive

by Europe
45,501 views 54 this week
no commentswrite comment
1 2 3 4 5
x 7
add to favorites
launch autoscroll
font size
0
reset
how to read this tab
guitar tuner
backing track
0:00
0:00
×
Best way to learn
"Superstitious"
Autoscroll
slow
fast
+/-
esc
set tempo
stop
"superstitous" by Europe
Tabulated by: Flipmac Magnusson

__16___    ___4___
| | | | or | | | | - 16ths notes

____5____
| | | | | - kvintoles

____6______
| | | | | | - sixth tripplets

and so on..

[Intro]
"Keap on walking that road and I folow, Keap on calling my name I be there
And if a mirror should break - it's easy to take
Deap down I know that you care.
Well I'm not superstitous."

 [Figure 1]
e|-----------------------------|----------------------------|
B|--------------6-----5--------|-------------8------6-------|
G|-7---5---7----5-----5--------|-7---5---7---7------5-------|
D|-7---5---7----3-----5--------|-7---5---7---5------3-------|
A|-5---3---5------3-3-----0-3--|-5---3---5------3-3----0-3--|
E|-----------------------------|----------------------------|
                                 
e|-----------------------------|----------------------------|
B|--------------6-----5--------|----------------------------|
G|-7---5---7----5-----5--------|-7---5---7------------------|
D|-7---5---7----3-----5--------|-7---5---7------------------|
A|-5---3---5------3-3-----0-3--|-5---3---5------------------|
E|-----------------------------|----------------------------|

[Fill]
                 b  r  p    ~~
e|---------------------------|
B|-------6-5---8-^10--8-6----|
G|-7-5-7-----5------------7--|
D|---------------------------|
A|---------------------------|
E|---------------------------|

 [Figure 2]
     s--<               "And I want you to..." m m     m   m    p
e|---------|-------------------|----------|---------------------------|
B|---------|-------------------|----------|--------------5----6-5-----|
G|---------|-------------------|----------|--------5-------5------5---|
D|---------|-------3-2---5-3---|-5--3--5--|-3------5---5------------5-|
A|---------|-5-3-5-----3-------|-5--3--5--|-3------3------------------|
E|-17------|-------------------|-3--1--3--|-1-1-1---------------------|

 ("..every day. All of the time"                "so keap on..")
                        m
e|-----------------|-------------------|
B|-----------------|-------------------|
G|-----------------|-3-----5-----------|
D|-5--3--5---------|-3-----5-----------|
A|-5--3--5---------|-1--1--3-----------|
E|-3--1--3---------|-------------------|

[Refrain]
 ("..walking that road and i folow..")
             m m                          m m
e|---------------|--------------|-------------|-------------|
B|---------------|--------------|-------------|-------------|
G|---------------|--------------|-------------|-------------|
D|-9--9----------|-7------------|-9--9--------|-------------|
A|-8--7----------|-5--8---------|-8--7--------|-5-7-8--8----|
E|-----------8-8-|----6---------|---------8-8-|--------6----|

              ("Deap down I know that you care... well I'm not...")
                                                  ~~~~~~~~    s----<
|---------------|---------------|---------------|-----------------|
|---------------|---------------|---------------|-----------------|
|---------------|---------------|-5-------------|-----------------|
|---------------|---------8-----|-5-------------|-----------19----|
|-3----5--------|---------8-----|-3-------------|-3---------19----|
|-1----3--------|-5-~~~~--6-----|---------------|-----------------|

(figure 1 again)
("... tryin' to find out if love has gone..")

[Fill 2]
                ___6___  _______6________  _______6________
                |  |  |  |  |  |  |  |  |  |  |  |  |  |  |
 n.m.     ~~~~   r                                             ~~~~
e|----------------------------------------------------------|-----|
B|---13^15-----15-13-10-13-10----10-------------------------|-----|
G|----------------------------13----13-12-13-12-10-12-10----|-10--|
D|-------------------------------------------------------12-|-----|
A|----------------------------------------------------------|-----|
E|----------------------------------------------------------|-----|

[Figure 2] 
(refrain.. then..)
(first slide down the neck)

[Solo]
("I'm not superstitouuuuusss....." , joey howls)
 n.m
                 H  P  p                                                p
e|------|-------------------------------|-----------------------------------|
B|-10-11|-13---11-13-11-10--------------|--10-11-13-----13^15--15-r-(13)-11-|
G|------|------------------12-~~--10-12-|-----------10--~~------------------|
D|------|-------------------------------|-----------------------------------|
A|------|-------------------------------|-----------------------------------|
E|------|-------------------------------|-----------------------------------|

        ~~~~                  ~~~~~         ~~~     P     P       ~~~~
e|------------------------15-------|-18^(20)----18-17-18-17----------|
B|13--10---------------------------|----------------------- 18-------|
G|------------------10s12----13----|---------------------------17----|
D|---------------------------------|---------------------------------|
A|---------------------------------|---------------------------------|
E|---------------------------------|---------------------------------|

               p             ~~~~                           ~~~~
e|------------------------------|-------------------------------------|
B|------------------------------|17^(18)-17^(18)----------------------|
G|15^(17)---15-14-15^(17)-15----|-----------------17-15-14-15---------|
D|------------------------------|-------------------------------------|
A|------------------------------|-------------------------------------|
E|------------------------------|-------------------------------------|

                                ~~~
e|-------------------------|-----------------------------------12-13-|
B|-------------------------|---------------------------11-13-16------|
G|14tr(15)tr(14)-----------|------------------10-12-15---------------|
D|-------------------17-15-|14--------10-12-15-----------------------|
A|-------------------------|-----------------------------------------|
E|-------------------------|-----------------------------------------|

              r  p      ~~~~               H  P  P      ~~~~
e|15--^17-^17--15-13-15------17-18-|-20--18-20-18-17--------------|
B|---------------------------------|------------------20----------|
G|---------------------------------|------------------------------|
D|---------------------------------|------------------------18-20-|
A|---------------------------------|------------------------------|
E|---------------------------------|------------------------------|

              ~~~~
e|17-18-20------------------20^22|
B|---------18--------------------|
G|-------------------------------|
D|-------------------------------|
A|-------------------------------|
E|-------------------------------|

       _4__ ______5______  __________8___________  _________8____________
       |  | |  |  |  |  |  |  |  |  |  |  |  |  |  |  |  |  | |  |  |  |

e|(22)-20-18-17-20-18-17----18-17----------------17-18-20-18-17------------|
B|-----------------------20-------20-18-17-18-20---------------20-18-17-20-|
G|-------------------------------------------------------------------------|
D|-------------------------------------------------------------------------|
A|-------------------------------------------------------------------------|
E|-------------------------------------------------------------------------|

  ___________9___________ ___________9_____________
  |  | |  |  |  |  |  | |  |  |  |  |  | |  |  |  |
e|----------------------------------------------------|
B|18-17-----------------------------------------------|
G|-----19-17-15-19-17-15------------------------------|
D|----------------------19-17-15-19-17-15-------------|
A|---------------------------------------19-17-19-20--|
E|----------------------------------------------------|

  __________9_____________  ___________9____________
  |  |  |  |  |  | |  |  |  |  |  | |  |  |  |  |  |

e|----------------------------------------------------|
B|----------------------------------20-22-23-20-22-23-|
G|-----------------19-21-22-19-21-22------------------|
D|17-19-20-17-19-20-----------------------------------|
A|----------------------------------------------------|
E|----------------------------------------------------|

    ~~~~                   ~~~~                             h  p
e|20-------18-17-18-17---------|-22^--22^---20-17-18--17-18-17--20--18--|
B|----------------------18-----|----------------------------------------|
G|-------------------------17--|----------------------------------------|
D|-----------------------------|----------------------------------------|
A|-----------------------------|----------------------------------------|
E|-----------------------------|----------------------------------------|

     ______6______  _______6_______
     ||  |  | |  |  |  |  |  | |  |                          p
e|-17-x-------------------------17-18-|-20--20^--20^--(20)-r-17-20--|
B|---------------------17-18-20-------|-----------------------------|
G|-------------15-17-19---------------|-----------------------------|
D|-----15-17-19-----------------------|-----------------------------|
A|------------------------------------|-----------------------------|
E|------------------------------------|-----------------------------|
(Now there is a litle calmer part with some keybord and bass-slapping. then..)

 ("we'll gonna make it, thats what we'll do..")
   ___16__ ___16__ __16th_        ___16__ ___16__
   | | | | | | | | | | | |        | | | | | | | |               h  p
e|-------------------------------|---------------------------------------|
B|-------------------------------|---------------------------10-11-10----|
G|-------------------------------|---------------------10-------------10-|
D|-------------------------5--7--|----------------s/10----10-------------|
A|-8---x-8-x-x-8---x-8-x-x-------|8---x-8-x-x-8--------------------------|
E|-------------------------------|---------------------------------------|

                          __8th
                          |   |          s--< s->                   s------|
|--------------------------------|-----------------------------------------|
|--------------------------------|------------------------10----8----------|
|--------------------------------|---------------------10----10---10-------|
|-------------------------5--7---|------------------10---------------------|
|-8---x-8-x-x-8---x-8-x-x--------|8---x-8----------------------------------|
|--------------------------------|-----------------------------------------|

[Refrain]

[Figure 1]

************************************

| ~    Vibrato
| (n)  Ghost note
| r    Release
| P    Pop
| x    Dead note

************************************
Suggest correction
comments
print report bad tab
guest
You may want to rate the tab now too:
select rating
Wanna post a correction for this tab? Suggest correction