Oops, an error
Loading. Please wait.

I Saved The World Today Bass Tab

version 1
version 1

Whole song

Interactive

672 views 3 this week
no commentswrite comment
1 2 3 4 5
excellent!
x 2
add to favorites
launch autoscroll
font size
0
reset
guitar tuner
Tab Pro tools
  • play this tab
  • loop segment
  • change instrument
  • show fretboard
  • metronome
Autoscroll
slow
fast
+/-
esc
set tempo
stop
Contributor
Difficulty
intermediate
I Saved the World Today
Song writers Annie Lennox/David A. Stewart
From the Album Peace Released 4th October 1999
Original Bassist is either Dave Catlin-Birch or
Chucho Merchan
Tabbed by bass50611. Straight forward should not give
you any probs at all. Any comment e-mail me at
goldenoldie.benson@sky.com
Have fun

Intro:
G------------------------------------------------------------------|
D---8-88---8-88---8-88---8-88---7-77---6-66---5-55---4-44---3-33---|
A------------------------------------------------------------------|
E------------------------------------------------------------------|

G-------------------------------|
D----------7-77---7-77------6---|
A---7-77-----------------7-9----|
E-------------------------------|

Verse:
G-------------------------------------------------------------------|
D---7-77---6-66---5-55---4-44---3-33------7-77---7-77----6---7-77---|
A------------------------------------7-77-------------7-9-----------|
E-------------------------------------------------------------------|

G--------------------------------------------------|
D---6-66---5-55---4-44---3-33---2-22---------------|
A------------------------------------0-00---0-00---|
E--------------------------------------------------|

Chorus:
G------------------------------------------------------------------|
D------------------------------------------------------------------|
A---0-3-5-55---------2-3-33--------0-3-5-55--------2-3-33----------|
E------------1-3-33---------0-1-11----------1-3-33--------0-1-11---|

G--------------------------------------------------------------------|
D--------------------------2-3-33---6-66---8-88---7-77---7-77----6---|
A---0-3-5-55--------2-3-33------------------------------------7-9----|
E------------1-3-33--------------------------------------------------|

Verse 2:
G-----------------------------------------------------------------|
D---7-77---6-66---5-55---4-44---3-33---2-22-----------------------|
A-----------------------------------------------------------------|
E-------------------------------------------5-55---5-55---0-2-3---|

G---------------------------------------------------------|
D---------------------------------------------------------|
A-------------------------------------------0-00---0-00---|
E---5-55---4-44---3-33---2-22---1-11---0-00---------------|

Chorus 2:
G------------------------------------------------------------------|
D------------------------------------------------------------------|
A---0-3-5-55---------2-3-33--------0-3-5-55--------2-3-33----------|
E------------1-3-33---------0-1-11----------1-3-33--------0-1-11---|

G-------------------------------------------------|
D-------------------------------------------------|
A---0-3-5-55--------2-3-33------------------------|
E------------1-3-33--------0-1-11---4-44---6-66---|

Bridge:
G------------------------------------------------------------------|
D------------------------------------------------------------------|
A------------------------------------------------------------------|
E---5-55---5-55---6-66---6-66---5-55---5-55---6-66---6-66---5-55---|

G-----------------------------------------------------------------|
D-----------------------------------------------------------------|
A---------------------------------------------------5-55---5-55---|
E---5-55---6-66---6-66---5-55---5-55---6-66---6-66----------------|

G---------------------------------------------------------|
D---7-77---6-66---5-55---4-44---3-33---2-22---------------|
A-------------------------------------------0-00---0-00---|
E---------------------------------------------------------|

Chorus 3:
G------------------------------------------------------------------|
D------------------------------------------------------------------|
A---0-3-5-55---------2-3-33--------0-3-5-55--------2-3-33----------|
E------------1-3-33---------0-1-11----------1-3-33--------0-1-11---|

G-------------------------------------------------|
D-------------------------------------------------|
A---0-3-5-55--------2-3-33------------------------|
E------------1-3-33--------0-1-11---4-44---6-66---|

Chorus 4:
G--------------------------------------------------------------|
D--------------------------------------------------------------|
A---5-55---------2-3-33--------0-3-5-55--------2-3-33----------|
E--------1-3-33---------0-1-11----------1-3-33--------0-1-11---|

G-------------------------------------------------|
D-------------------------------------------------|
A---0-3-5-55--------2-3-33------------------------|
E------------1-3-33--------0-1-11---4-44---4-44---|

Outro: (play this x8)
G----------|
D----------|
A----------|
E---6-66---|

G-------------|
D-------------|
A-------------|
E---0-2-4-5---|
comments
We did not receive enough feedback on this tab! Please rate:
print report bad tab
1 2 3 4 5
I want to post or [tab]
guest
You may want to rate the tab now too:
select rating
Please do not post tabs as comments. Select "correction" instead!