Oops, an error
Loading. Please wait.

There Must Be An Angel Bass Tab

version 1
version 1

Whole song

Interactive

1,051 views 3 this week
1 commentread comment
1 2 3 4 5
1 last vote to show rating
add to favorites
launch autoscroll
font size
0
reset
guitar tuner
Autoscroll
slow
fast
+/-
esc
set tempo
stop
Help us to improve Ultimate-Guitar.com Take our survey!
×
Author
Difficulty
intermediate
There Must Be An Angel
Original artists The Eurythmics, with Stevie Wonder on Harmonica
song written by Annie Lennox and Dave Stewart.  Released in 1985
reaching number 1 in the UK, Brazil, Norway and Ireland plus a
Top 10 hit all over Europe. Tabbed by bass50611.
Not exact as recording but near enough.
Any comments e-mail me at bass254@btinternet.com

Intro:
G|-------------------------------------------------------------------|
D|-------------------------------------------------------------------|
A|-55---5--------------------------------------------66---6-5-33---3-|
E|--------33---3---55---5-3-11---1---11---1---33---3-----------------|

Verse:                                               (Play This x 2)
G|-------------------------------------------------------------------|
D|-------------------------------------------------------------------|
A|-55---5--------------------------------------------66---6-5-33---3-|
E|--------33---3---55---5-3-11---1---11---1---33---3-----------------|

Chorus:
G|---------------5-5--2-------------------5-5--2-----------------------|
D|---------------------5-2----------------------5-2--------------------|
A|-----------3-3---------------------3-3----------------------3-3------|
E|-1-1---4-4---------------1-1---4-4----------------1-1---4-4------5-5-|

G|-------------------------|
D|-------------------------|
A|-------------6-6-5---3-3-|
E|-1-1----3-3--------------|

Repeat Verse & Chorus:

Bridge:
G|------------------------------------------------------------|
D|------------------------------------------------------------|
A|------5-5-----------------5-5-----------------5-5-----------|
E|-6-6------3-3---3-3---6-6-----3-3---3-3---6-6-----3-3---3-3-|

G|-----------------------|
D|------------3----------|
A|-3-3---3-3-------------|
E|-------------1-1---3-3-|

And that is basically the song, just goes round and round fading out
at the end.  Catchy song, enjoy playing along to it.
Suggest correction
Give kudos to tab author, rate the tab!
1 2 3 4 5
comments
print report bad tab
1 comment total.
0 reply
lovetheeighties 219 Jul 10, 2014 04:03 PM

Nice tab! Enjoyed it very much :)

guest
You may want to rate the tab now too:
select rating
Wanna post a correction for this tab? Suggest correction