Oops, an error
Loading. Please wait.

Somewhere Over The Rainbow Tab

version 3
version 3

Whole song

  • ver 3 new
    This is the original tabulatur as per her live per... Show more
16 views 16 this week
no commentswrite comment
1 2 3 4 5
3 more votes to show rating
add to favorites
launch autoscroll
font size
0
reset
how to read this tab
guitar tuner
Autoscroll
slow
fast
+/-
esc
set tempo
stop
Help us to improve Ultimate-Guitar.com Take our survey!
×
Author
Difficulty
Capo
intermediate
1st fret
About this tab version
This is the original tabulatur as per her live performance at "Blues Alley". She plays it in standard tuning with Capo on 1st fret. I have taken most of the fingering and picking patterns of the video footage. -Enjoy-. Was this info helpful? Yes No
Eva Cassidy   Over the Rainbow   Std Tuning   Capo 1

Song Flow: Intro, Chorus 1, Chorus 2, Verse, Instr. Break, Verse, Chorus 2, Outro

[Intro]
e|-----------------|-----------------|-----------------|-3-------3-------|
B|-0---3---0---3---|-0---3---0---0---|-1---3---1---3---|-----5-----------|
G|-2---0---2---0---|-2---0---2---3---|-0---0---0---0---|---5---5---5-----|
D|---0---0---0---0-|---0---0---0-----|---2---2---2---0-|-0-------0-----/-|
A|-----------------|-----------------|-0---------------|-------------0---|
E|-3---+---+---+---|-+---+---+---+-0-|-+---+---+---+---|-+---+---+---+---|

########################################################################

[Chorus]
e|---------3-------|---------0-------|-2-------2-------|-----------------|
B|-0-----0---------|-------0-----0---|-------3-----3---|-------3-1---3---|
G|-----2-------2---|-----0-----------|-----2-----------|-----4-----0---0-|
D|---0-------0-----|---2-------2-----|---4-------4-----|---3-------------|
A|-----------------|---------------0-|-2-------------0-|---------0---2---|
E|-3---+---+---+-2-|-0---+---+---+---|-+---+---+---+---|-3---+---+---+---|
 1. Some  - - - -   where             over   the        rain   bow
 2. Some  - - - -   where             over   the        rain   bow
                                   
e|-0---------------|-3--3h5------3---|---------3-------|-1---------------|
B|-------1-1---1---|---------4-------|-0-----0-----0---|-----0---1---3---|
G|-----0-----0-----|---3---3---/---3-|-----2---------0-|---0---0---0---0-|
D|---2-----0--0h2/-|-----------------|---0-------0-----|-----------------|
A|-3---------------|-3---3-------3---|-----------------|---------0---2---|
E|-+---+---+---+---|-+---+---+---+---|-3---+---+---+-0-|-3---+---+---+---|
  way               up                high
  skies             are               blue

e|-0-------0-------|---------3-------|-----------------|---------0-------|
B|-------1-----1---|-4-----4-----4---|-0-------------0-|-------0-----0---|
G|-----0-------0---|-3---3-----------|-0---0-------0---|-----0---------0-|
D|---2-------2-----|---5-------5---/-|---0---0---0-----|---2-------2-----|
A|-3-------------0-|-3---------------|-----------------|-----------------|
E|-+---+---+---+---|-+---+---+---+---|-3---+---2---+---|-0---+---+---+---|
  in               a                  la  - - - - -  nd, that I heard of
  and              the                drea  - - - -  ms, that you dare to

                                      (last 2 measures for Chorus 1 and 2)
e|-3-------0---2/3-|-3---------------||---------3-------|-----------------|
B|-------1-1---1---|-1---1---------1-||-------0---------|-1-------3-------|
G|-----0-----0-----|---2---2-----2---||-----2-------2p0-|---0---0-----2---|
D|---2-------------|-0---------0-----||---0-------0-----|-----2-----0---/-|
A|-0---------------|-----------------||-----------------|-0---------------|
E|-+---+---+---+---|-+---+---2---+---||-3---+---+---+---|-+---+---2---+---|
  once,           once in a lulla  -   by
  dream,          really    do come    true

########################################################################

[Verse]
e|-----------------|-----------------|-----------------|-----------------|
B|-0---3---0---3---|-0---3---0---3---|-1---3---1---3---|-1---3---1---3---|
G|-2---0---2---0---|-2---0---2---0---|-0---0---0---0---|-2---2---2---2---|
D|---0---0---0---0-|---0---0---0-----|---2---2---2---0-|---0---0---0---/-|
A|-----------------|-----------------|-0---------------|-----------------|
E|-3---+---+---+---|-+---+---+---+-0-|-+---+---+---+---|-2---+---+---+---|
 Some day, I’ll wish upon a star and wake up where the clouds are fa--r

e|-2-------2-------|---------0---0h3-|-3---0---3--4/5--|6/7------5-------|
B|-------0---------|-------0---------|-------1---------|-----7-------5---|
G|-----2-----------|-----0-----------|-----------0---0-|---7---7---5---5-|
D|---0-------0-----|---2-------2-----|---2---------0---|-0-------0-------|
A|-----------------|-----------------|-0---------------|-----------------|
E|-3---+---+---3-2-|-0---+---+---+---|-+---+---+---+---|-+---+---+---+---|
  behind            me

e|-----------------|-----------------|---------2-------|---------2-------|
B|-0---3---0---0---|-0---3---0---3---|-2-----2-----2---|-------2-------2-|
G|-2---0---2---3---|-2---0---2---0---|-3---3---------3-|-----3-------3---|
D|---0---0---0---0-|---0---0---0-----|---2-------2-----|---2-------2-----|
A|-----------------|-----------------|-----------------|-----------------|
E|-3---+---+---+---|-+---+---+---+-0-|-2---+---+---+---|-2---+---+---+---|
  Where troubles melt like lemon drops, way above the chimney tops,that’s

e|---------2-------|-----------------|---------0-------|---------0-------|
B|-3-----3-----3---|-------3-------3-|-------1---1-----|-------1-----3---|
G|-4---4---------4-|-----4-------4---|-----2-------2---|-----2-----------|
D|---4-------4-----|---4-------4-----|---2-----------2-|---0-------0---/-|
A|-2---------------|-1-------1-------|-0---------------|-----------------|
E|-+---+---+---+---|-+---+---+---+---|-+---+---+---+---|-2---+---+---2---|
  where  - - - - -  you’ll            fi - - - nd       m  - - - e


Chorus 1: Somewhere over the rainbow, way up high
In a land that I heard of once, once in a lullaby

Chorus 2 (and 3): Somewhere over the rainbow, skies are blue
And the dreams, that you dare to dream, really do come true

2x Verse (with instrumental break in between):
Someday I’ll wish upon a star and wake up where the clouds are far behind me
Where troubles melt like lemon drops, away above the chimney tops
That’s where you’ll find me

Outro: If happy little bluebirds fly, above the rainbow, why, oh why can’t I
 
########################################################################

 Instrumental Break:
e|-7-------7---5---|-3------3h5--3---|-2-------2-------|-----5---3-------|
B|-8-------8---7---|-5-----5-------0-|-3-----3-----3---|---3---------6---|
G|-7-----7---0---0-|-----4-----------|-----2-----2-----|-4---------------|
D|---/-/-----------|---/--------/----|-------------4---|-------3---3-----|
A|-----------------|-----------------|---/-----2-----/-|---------------0-|
E|-+---+---+---+---|-+---+---+---+---|-+---+---+---+---|-3---+---+---+---|

e|-0-------2---3---|3h5--5-------3h5-|5/7--7---7-------|-----3---1---3---|
B|-----0-----------|-4---------------|---------8-------|-0-----0-------0-|
G|---0---0---0---0-|---3-----3-------|---7---7-7-------|-----------------|
D|-----------------|-------5---/---/-|-0-------0-/-/-/-|---0-------0-----|
A|-3---------------|-3---------------|-----------------|-----------------|
E|-+---+---+---+---|-+---+---+---+---|-+---+---+---+---|-3---+---3---+---|

e|-0-------2---3---|-3---5-------3---|---------0---2---|-3---2---0---2h3-|
B|-----0-----------|-4---------------|-0---3---------3-|---0---0---------|
G|---0---0---0---0-|---3-----3-----3-|-------0---0-----|-----------------|
D|-----------------|-------5---/-----|---0-------------|-----------/-----|
A|-3---------------|-3---------------|-----------------|-----------------|
E|-+---+---+---+---|-+---+---+---+---|-3---+---2---+---|-0---+---+---+---|

e|-3-------0----2/3|-3-----------5/7-|-3-------3-------|-----------------|
B|-----1-----------|-----1-------5/7-|-----0-------0---|-1-------3-------|
G|---0---0---0-----|---2---2-----5/7-|---0---0---0---0-|---0---0-----2---|
D|-------------/---|-0-------0-/-----|-----------------|-----2-----0---/-|
A|-0---------------|-----------------|-----------------|-0---------------|
E|-+---+---+---+---|-+---+---+---+---|-3---+---3---+---|-+---+---2---+---|

########################################################################

  (last 2 measures for 2nd time Chorus 2, than Outro)
e|-----------------|-----------------|O|-----------------|-----------------|
B|-0---3---0---3---|-0---3---0---3---|U|-0---3---0---3---|-0---3---0---3---|
G|-2---0---2---0---|-2---0---2---0---|T|-2---0---2---0---|-2---0---2---0---|
D|---0---0---0---0-|---0---0---0-----|R|---0---0---0---0-|---0---0---0-----|
A|-----------------|-----------------|O|-----------------|-----------------|
E|-3---+---+---+---|-+---+---+---+-0-| |-3---+---+---+---|-+---+---+---+-0-|
                                       If happy little bluebirds fly, above

e|-----------------|-----------------|---------0-------|-----------------|
B|-1---3---1---3---|-1---------------|-------1---------|-------3-------3-|
G|-0---0---0---0---|-0---------------|-----2-----------|-----0-------0---|
D|---2---2---2---2-|---/-/-/-/-/-/-/-|---2-------/-/-/-|---2-------2-----|
A|-0---------------|-0---------------|-0---------------|-3-------3-------|
E|-+---+---+---+---|-+---+---+---+---|-+---+---+---+---|-+---+---+---+---|
  the rainbow,      why,      oh      why    can’t      I - - - - - - - 

e|-----------------|---------3-------|---------3-------|-3---------------| |
B|-------3---------|-------1-----1---|-------1---1-----|---0-------------|E|
G|-----0-------0---|-----1---------1-|-----1-------1---|-----0-----------|N|
D|---2-------2---2-|---1-------1-----|---1-----------1-|-------0---/-/-/-|D|
A|-3-------3-------|-3---------------|-3---------------|-----------------| |
E|-+---+---+---+---|-+---+---+---+---|-+---+---+---+---|-3---+---3---+---| |
  - - - - - - I



************************************

| /  Slide up
| h  Hammer-on
| p  Pull-off

************************************
Suggest correction
Give kudos to tab author, rate the tab!
1 2 3 4 5
comments
print report bad tab
guest
You may want to rate the tab now too:
select rating
Wanna post a correction for this tab? Suggest correction