Oops, an error
Loading. Please wait.

Time After Time tab

version 4
version 4

Whole song

Interactive

100 views 1 this week
no commentswrite comment
1 2 3 4 5
2 more votes to show rating
add to favorites
×
Save as Personal and add changes to this tab that will be seen only by you. Learn more ›
×
You can save this tab as Personal to edit and correct it or add notes. All changes will be seen only by you. Learn more »
launch autoscroll
font size
0
reset
how to read this tab
guitar tuner
edit
Autoscroll
slow
fast
+/-
esc
set tempo
stop
About this tab version
Improved Version over other submitted versions of the song. It is exactly as per artist's live performancy at "Live at Blues Alley". Was this info helpful? Yes No
Song version as per Eva's live performany from 'Live at Blues Alley' 
Song Flow: 
[Intro] 
[1.Verse]
[2.Verse]
[1.Chorus]
[Intro]
[3.Verse]
[2.Chorus]

 [Intro]
   Csus4  C    Csus2  Csus4  C     Em7   Am       G6/9       F
e|------------------|------------------|------------------|----------1-------|
B|------1-----1-----|------1-----1-----|-----0h1--0-----0-|--------1---------|
G|----0-----0-----0-|----0-----0-------|--------------2---|------2-----------|
D|-2h3----2-----0---|-2h3----2-----0---|----2---2---2-----|----3-------------|
A|--3---------------|--3-----------2---|--0---0-----------|------------------|
E|--+---+---+---+---|--+---+---+---+---|--+---+---3---+---|--1---+---+---+---|

 [Verse]
   Csus4  C    Csus2  Csus4  C    Csus2  Csus4  C    Csus2  Csus4  C    Csus2
e|------------------|------------------|------------------|------------------|
B|------1-----1-----|------1-----1-----|------1-----1-----|------1-----1-----|
G|----0-----0-----0-|----0-----0-----0-|----0-----0-----0-|----0-----0-----0-|
D|--3-----2-----0---|--3-----2-----0---|--3-----2-----0---|--3-----2-----0---|
A|--3-----3---------|--3-----3---------|--3-----3---------|--3-----3---------|
E|--+---+---+---+---|--+---+---+---+---|--+---+---+---+---|--+---+---+---+---|
   Lying in  my       bed I hear         the clock tick and think of you
                      picture me   I’m   walking  too       far  ahead. You’re
   after  your        picture   fades    darkness  has      turned  to gray       

   Csus4  C    Csus2  Csus4  C    Csus2  Csus4  C    Csus2  Csus4  C    Csus2
e|------------------|------------------|------------------|------------------|
B|------1-----1-----|------1-----1-----|------1-----1-----|------1-----1-----|
G|----0-----0-----0-|----0-----0-----0-|----0-----0-----0-|----0-----0-----0-|
D|--3-----2-----0---|--3-----2-----0---|--3-----2-----0---|--3-----2-----0---|
A|--3-----3---------|--3-----3---------|--3-----3---------|--3-----3---------|
E|--+---+---+---+---|--+---+---+---+---|--+---+---+---+---|--+---+---+---+---|
    turning   in       circles        confusion       is     nothing new
    calling            to    me,    I     can’t  hear   what you’ve said  and
    watching  through  windows   I’m      wondering   if     you’re okay  and

    F     Gsus2        Em    F            F     Gsus2        Em          Em7
e|------------------|----------------1-|--1---------------|----------0-------|
B|--------------0---|--------------1---|--------------0---|--------0-----3---|
G|------------2-----|------------2-----|------2-----2-----|------0-------0---|
D|------3---0-----0-|------2---3-------|----3-----0-----0-|----2-------2---0-|
A|----3-------------|----2-------------|------------------|------------------|
E|--1---+-3-+---+---|--0---+-1-+---+---|--1---+-3-+---+---|--0---+---+---+---|
    flashback  to      warm  nights,      almost   left   behind
    you   say         ‘go    slow, I’ve   fal – len       behind’
    you   say         ‘go    slow, I’ve   fal – len       behind’

[1.Verse]
    F     Gsus2        Em    F            F           G     Csus4 C     Csus2
e|------------------|------------------|------------------|(-----------------)|
B|--1-----------0---|--------------1---|--1-----1-----0---|(-----1-----1-----)|
G|------------2-----|------------2-----|------2-----------|(---0-----0-----0-)|
D|------3---0-----0-|------2---3-----3-|----3-------3---0-|(-3----0h2----0---)|
A|----3-------------|----2-------------|------------------|(-3-----3---------)|
E|--1---+-3-+---+---|--0---+-1-+---+---|--1---+---1---3---|(-+---+---+---+---)|
      suitcase   of  memories               time after      sometimes  you

[2. + 3.Verse]
    F     Gsus2        Em    F          
e|------------------|------------------|------------------|
B|--1-----------0---|--------1---------|------------------|
G|------------2-----|--------2---------|------------------|
D|------3---0-----0-|------2-3---------|------------------|
A|----3-------------|----2-------------|------------------|
E|--1---+-3-+---+---|--0---+-1-+---+---|--+---+---+---+---|
     the  second      hand unwinds             If you’re
     the drum beats   out of time              If you’re   

[Chorus]
    G                  Am                 F       G          C   Csus4 C Csus2
e|--3-----3---------|------------------|------------------|------------------|
B|--0-----0-------0-|----------1---0---|--1-------------0-|--------1---1-1---|
G|------2-------2---|------2-----------|--------2-----0---|------0-0---0-0---|
D|----0-------0-----|----2-------2---2-|------3-----0-----|----2--2h3--2-0---|
A|------------------|--0-------0-------|----3-------------|--3-------------3-|
E|--3---+-3-+---+---|--+---+-0-+---3---|--1---+---3---+---|--+---+---+---+---|
  lost you can look and you will find me  time   after     time        if you

    G                  Am                 F       G         C
e|--3-----3---------|------------------|------------------|------------------|
B|--0-----0-------0-|----------1---0---|--1---------------|--------1---------|
G|------2-------2---|------2-----------|--------2-----0---|------0-0-----0---|
D|----0-------0-----|----2-------2---2-|------3-----0---0-|----2--0h2--2---2-|
A|------------------|--0-------0-------|----3-------------|--3---------------|
E|--3---+-3-+---+---|--+---+-0-+---3---|--1---+---3---+---|--+---+---+---+---|
  fall I will catch you, I'll be waiting  time   after     time        if you

    G                  Am                 F       G          C   Csus4 C Csus2
e|--3-----3---------|------------------|------------------|------------------|
B|--0-----0-------0-|----------1---0---|--1-------------0-|--------1---1-1---|
G|------2-------2---|------2-----------|--------2-----0---|------0-0---0-0---|
D|----0-------0-----|----2-------2---2-|------3-----0-----|----2--2h3--2-0---|
A|------------------|--0-------0-------|----3-------------|--3-------------3-|
E|--3---+-3-+---+---|--+---+-0-+---3---|--1---+---3---+---|--+---+---+---+---|
  fall I will catch you, I'll be waiting       time     after     time

[1.Chorus]
    F       G          C
e|------------------|------------------|
B|--1---------------|--------1---------|
G|--------2-----0---|------0-0---------|
D|------3-----0---0-|----2--0h2--------|
A|----3-------------|--3---------------|
E|--1---+---3---+---|--+---+---+---+---|
    time     after        time

[2.Chorus]
    F       G          C  Csus4  C Csus2  F       G          C   Csus4 C Csus2
e|------------------|------------------|------------------|------------------|
B|--1-------------0-|--------1---1-1---|--1-------------0-|--------1---1-1---|
G|--------2-----0---|------0-0---0-0---|--------2-----0---|------0-0---0-0---|
D|------3-----0-----|----2--2h3--2-0---|------3-----0-----|----2--2h3--2-0---|
A|----3-------------|--3-------------3-|----3-------------|--3-------------3-|
E|--1---+---3---+---|--+---+---+---+---|--1---+---3---+---|--+---+---+---+---|
    time   after      time   hmmm-hmmm    time   after       time   uhhh-uhhh

[2.Chorus]
    F       G          C
e|------------------|------------------||
B|--1---------------|--------1---------||
G|--------2-----0---|------0-0---------||
D|------3-----0---0-|----2--0h2--------||
A|----3-------------|--3-----3---------||
E|--1---+---3---+---|--+---+---+---+---||
    time   after       time

|h| - hammer on

[Lyrics]

[Verse 1]
Lying in my bed I hear the clock tick and think of you,
turning in circles, confusion is nothing new
Flashback to warm nights, almost left behind, suitcase of memories time after…

[Verse 2]
Sometimes you picture me, I'm walking too far ahead,
you're calling to me, I can't hear what you’ve said
And you say ‘go slow, I’ve fallen behind’, the second hand unwinds

[Verse3]
After your picture fades, darkness has turned to gray,
watching through windows, I’m wondering if you’re okay
And you say ‘go slow, I’ve fallen behind’, the drum beats out of time

[Chorus]
If you're lost, you can look and you will find me, time after time
If you fall I will catch you, I'll be waiting, time after time,
if you fall I will catch you, I will be waiting, time after time, time after time

            
            
Suggest correction
Creating personal tab
Creating personal tab
You can edit any tab online and save it as your Personal.

You can edit, replace or remove any tab part or add personal notes – all changes will be seen only by you.

Personal tabs can be accessed anytime from any device, even offline.
Learn more »
Give kudos to tab author, rate the tab!
1 2 3 4 5
comments
print report bad tab
guest
You may want to rate the tab now too:
select rating
Wanna post a correction for this tab? Suggest correction