Oops, an error
Loading. Please wait.

Wayfaring Stranger Tab

version 1
version 1

Whole song

21,339 views 93 this week
1 commentread comment
1 2 3 4 5
x 4
add to favorites
launch autoscroll
font size
0
reset
how to read this tab
guitar tuner
×
Best way to learn
"Wayfaring Stranger"
Autoscroll
slow
fast
+/-
esc
set tempo
stop
No capos - Tuning EBGDAE

[Intro/Vers]
Bb-mol  Bb-mol  Ab  Bb-mol Bb-mol Ab
Eb-mol  Eb-mol  Bb-mol Bb-mol Ab
Bb-mol  Bb-mol - Ab  Bb-mol Bb-mol Ab
Eb-mol  F  Bb-mol  Bb-mol  Ab

[Intro riff]
E|--------------------------------------------------------------|
B|--------------------------------------------------------------|
G|-----------10-----------------8--10--8------------------------|
D|--8---11--------11-----8--11------------11--8--6--8-----------|
A|--------------------------------------------------------------|
E|--------------------------------------------------------------|

E|--------------------------------------------------------------|
B|--------------------------------------------------------------|
G|-----------8-----------------8--10--8-------------------------|
D|--8---11-------------8--11------------11--8--6--8-------------|
A|--------------------------------------------------------------|
E|--------------------------------------------------------------|

E|--------------------------------------------------------------|
B|--------------------------------------------------------------|
G|-----------10-----------------8--10--8------------------------|
D|--8---11--------11-----8--11------------11--8--6--8-----------|
A|--------------------------------------------------------------|
E|--------------------------------------------------------------|

E|--------------------------------------------------------------|
B|--------------------------------------------------------------|
G|-----------8--10--11--10--8----8--10--8-----------------------|
D|--8---11--------------------------------11--8--6--8-----------|
A|--------------------------------------------------------------|
E|--------------------------------------------------------------|

[Chorus]
Gb Gb Db Db 
Gb Gb Fsus4 F 
Gb Gb Bb-mol Bb-mol 
Gb Gb Bb-mol Bb-mol 

[Solo]
Bb-mol Bb-mol Ab Bb-mol Bb-mol Ab 
Eb-mol Eb-mol Bb-mol Bb-mol - Ab 
Bb-mol Bb-mol Ab Bb-mol Bb-mol - Ab
Eb-mol F Bb-mol Bb-mol Ab 
The solo is played on the guitar. It's almost the same as the intro-riff. But there is a 
in the last line.

[Outro]
Gb Gb Bb-mol Bb-mol
Gb Gb Bb-mol Bb-mol

[Lyrics]
Verse 1
I am a poor wayfaring stranger,
While journeying through,
This world of woe,
Yeah, and there's no say,
In this toil or danger,
In that bright land,
To which i go.

[Chorus]
I'm going there to see my Father,
I'm going there, no more to roam,
I'm only go, going over jordan,
I'm only go, going over home.

[Verse 2]
I know dark clouds,
Will gather on me,
I no my way,
My way is rough and steep,
Yeah, and beautiful fields,
Lie just before me,
And God's redeem,
Their vigils keep.

[Chorus]
I'm going there to see my Father,
I'm going there, no more to roam,
I'm only go, going over jordan,
I'm only go, going over home.

[Solo](crescendo up to the chorus)

[Chorus]
I'm going there to see my Mother,
I'm going there, no more to roam,
I'm only go, going over jordan,
I'm only go, going over home.

[Verse 3]
I want to wear,
That crown of glory,
When I get home,
To that good land,
Well, I want to shout,
Salvation's story,
In concert with,
All the blood-washed band.

[Chorus]
I'm going there to see my Saviour,
I'm going there, no more to roam,
I'm only go, going over jordan,
I'm only go, going over home.

[Outro](fade out)
Well, i'm only go, going over home. (Reputation adlibitum)

************************************

| b  Bend

************************************
Suggest correction
comments
print report bad tab
1 comment total.
0 reply
mycus 58 May 29, 2015 06:13 PM

What is this, what does this mean? Bb-mol???????????

guest
You may want to rate the tab now too:
select rating
Wanna post a correction for this tab? Suggest correction