Oops, an error
Loading. Please wait.

All That Im Living For Tab

version 2
version 2

Whole song

Interactive

1,902 views 1 this week
3 commentsread comments
1 2 3 4 5
accurate
x 3
add to favorites
launch autoscroll
font size
0
reset
how to read this tab
guitar tuner
Autoscroll
slow
fast
+/-
esc
set tempo
stop
Help us to improve Ultimate-Guitar.com Take our survey!
×
Contributor
Difficulty
Tuning
novice
B F# B E G# C#
                          Evanescence - All That I´m Living For                             
                                                                 
Tuning : Dropped B

CHORUS         
C#||----------------------|-------------------------|----------------------|
G#||----------------------|-------------------------|----------------------|
E ||----------------------|-------------------------|----------------------|
B ||--4--4-------------0--|--0-------0--4--0-----4--|--4-------------0--0--|
F#||--4--4-------------0--|--0-------0--4--0-----4--|--4-------------0--0--|
B ||--4--4-------------0--|--0-------0--4--0-----4--|--4-------------0--0--|
    
--------------------------|----------------------|--------------------------|
--------------------------|----------------------|--------------------------|
--------------------------|----------------------|--------------------------|
--L-----0--4--0-----4--4--|--L-------------0--0--|--L-----0--4--0-----4--4--|
--L-----0--4--0-----4--4--|--L-------------0--0--|--L-----0--4--0-----4--4--|
--L-----0--4--0-----4--4--|--L-------------0--0--|--L-----0--4--0-----4--4--|
                                                  PAUSE
----------------------|--------------------------|-----------|
----------------------|--------------------------|-----------|
----------------------|--------------------------|-----------|
--L-----------0--0----|-----(0)--(0)-------------|-----------|
--L-----------0--0----|-----(0)--(0)-------------|-----------|
--L-----------0--0----|-----(0)--(0)-------------|-----------|
VERSES (I. + II.) (Dmi on this tuning)
---9-----9---9---9-----9---9--|---L---9---9---9---9-----9----|
--10----10--10--10----10--10--|---L--10--10--10--10----10----|
--11----11--11--11----11--11--|---L--11--11--11--11----11----|
--11----11--11--11----11--11--|---L--11--11--11--11----11----|
---9-----9---9---9-----9---9--|---L---9---9---9---9-----9----|
------------------------------|------------------------------|
    
---9-----9---9---9-----9---9--|---L---9---9---9---9-----9----|
--10----10--10--10----10--10--|---L--10--10--10--10----10----|
--11----11--11--11----11--11--|---L--11--11--11--11----11----|
--11----11--11--11----11--11--|---L--11--11--11--11----11----|
---9-----9---9---9-----9---9--|---L---9---9---9---9-----9----|
------------------------------|------------------------------|
 (H on this tuning) 
--5----5--5--5----5--5--|--L--5--5--5--5----5----|--5----5--5--5----5--5--|
--7----7--7--7----7--7--|--L--7--7--7--7----7----|--7----7--7--7----7--7--|
--7----7--7--7----7--7--|--L--7--7--7--7----7----|--7----7--7--7----7--7--|
--7----7--7--7----7--7--|--L--7--7--7--7----7----|--7----7--7--7----7--7--|
--5----5--5--5----5--5--|--L--5--5--5--5----5----|--5----5--5--5----5--5--|
------------------------|------------------------|------------------------|
                           (Dmi on this tuning)
--L--5--5--5--5----5----|---9-----9---9---9-----9---9--|
--L--7--7--7--7----7----|--10----10--10--10----10--10--|
--L--7--7--7--7----7----|--11----11--11--11----11--11--|
--L--7--7--7--7----7----|--11----11--11--11----11--11--|
--L--5--5--5--5----5----|---9-----9---9---9-----9---9--|
------------------------|------------------------------|

---L---9---9---9---9-----9----|---9-----9---9---9-----9---9--|
---L--10--10--10--10----10----|--10----10--10--10----10--10--|
---L--11--11--11--11----11----|--11----11--11--11----11--11--|
---L--11--11--11--11----11----|--11----11--11--11----11--11--|
---L---9---9---9---9-----9----|---9-----9---9---9-----9---9--|
------------------------------|------------------------------|
                               (H on this tuning)
---L---9---9---9---9-----9----|--5----5--5--5----5--5--|
---L--10--10--10--10----10----|--7----7--7--7----7--7--|
---L--11--11--11--11----11----|--7----7--7--7----7--7--|
---L--11--11--11--11----11----|--7----7--7--7----7--7--|
---L---9---9---9---9-----9----|--5----5--5--5----5--5--|
------------------------------|------------------------|
                         (A# on this tuning)
--L--5--5--5--5----5----|--4----4--4--4----4--4--|--L--4--4--4--4----4----|
--L--7--7--7--7----7----|--6----6--6--6----6--6--|--L--6--6--6--6----6----|
--L--7--7--7--7----7----|--6----6--6--6----6--6--|--L--6--6--6--6----6----|
--L--7--7--7--7----7----|--6----6--6--6----6--6--|--L--6--6--6--6----6----|
--L--5--5--5--5----5----|--4----4--4--4----4--4--|--L--4--4--4--4----4----|
------------------------|------------------------|------------------------|

CHORUS FILL  
--------------------------|--------------------------|
--7--7--7-----------------|--------------------------|
-----------6--6--6--------|--------------------------|
--------------------7--7--|--7--7--7--7--7--7--7--7--|
--------------------------|--------------------------|
--------------------------|--------------------------|
                                                               
--------------------------|--------------------------|
--7--7--7-----------------|--------------------------|
-----------6--6--6--------|--------------------------|
--------------------7--7--|--7-----------------------|
--------------------------|-----5--5--5--5--5--5--5--|
--------------------------|--------------------------|

BRIDGE (This chord ain´t played by a gtr, piano plays it)   
-------------------|-------------------||----------------------------||
-------------------|-------------------||----------------------------||
-------------------|-------------------||*--------------------------*||
--4----------------|--L----------------||*--0--0--0--0--0--0--0--0--*||
--4----------------|--L----------------||---0--0--0--0--0--0--0--0---||
--4----------------|--L----------------||---0--0--0--0--0--0--0--0---||

----------------------------||------------------------------------||
----------------------------||------------------------------------||
*--------------------------*||*----------------------------------*||
*--7--7--7--7--7--7--7--7--*||*--11--11--11--11--11--11--11--11--*||
---7--7--7--7--7--7--7--7---||---11--11--11--11--11--11--11--11---||
---7--7--7--7--7--7--7--7---||---11--11--11--11--11--11--11--11---||
   
----------------------------||----------------------------||
----------------------------||----------------------------||
*--------------------------*||*--------------------------*||
*--4--4--4--4--4--4--4--4--*||*--3--3--3--3--3--3--3--3--*||
---4--4--4--4--4--4--4--4---||---3--3--3--3--3--3--3--3---||
---4--4--4--4--4--4--4--4---||---3--3--3--3--3--3--3--3---||
   
----------------------------||------------------------------------||
----------------------------||------------------------------------||
*--------------------------*||*----------------------------------*||
*--7--7--7--7--7--7--7--7--*||*--11--11--11--11--11--11--11--11--*||
---7--7--7--7--7--7--7--7---||---11--11--11--11--11--11--11--11---||
---7--7--7--7--7--7--7--7---||---11--11--11--11--11--11--11--11---||
 
--------------------------|--------------------------|
--------------------------|--------------------------|
--------------------------|--------------------------|
--4--4--4--4--4--4--4--4--|--2--2--2--2--2--2--2--2--|
--4--4--4--4--4--4--4--4--|--2--2--2--2--2--2--2--2--|
--4--4--4--4--4--4--4--4--|--2--2--2--2--2--2--2--2--|
   
|----------------------------||----------------------------||
|----------------------------||----------------------------||
|*--------------------------*||*--------------------------*||
|*--0--0--0--0--0--0--0--0--*||*--9--9--9--9--9--9--9--9--*||
|---0--0--0--0--0--0--0--0---||---9--9--9--9--9--9--9--9---||
|---0--0--0--0--0--0--0--0---||---9--9--9--9--9--9--9--9---||

CHORUS(then + ch.fill) OUTRO                                    
-------------------||--------------------|--------------------||
-------------------||--------------------|--------------------||
-------------------||*-------------------|-------------------*||
-------------------||*--4----------------|--0----------------*||
-------------------||---4----------------|--0-----------------||
-------------------||---4----------------|--0-----------------||  (x4)


Last 2 hits  
----------------------||
----------------------||
----------------------||
--4--4----------------||
--4--4----------------||
--4--4----------------||

ORDER:
CHORUS
-pause-
VERSE I.
CHORUS
CHORUS with CHORUS FILL
-pause-
VERSE II.
CHORUS
CHORUS with CHORUS FILL
BRIDGE
CHORUS
CHORUS with CHORUS FILL
OUTRO
-last 2 hits-

Legend
----------------
L - tied note
(n) - ghost note

I hope y´all think this is right, ´cuz I´m hell of that sure=)Maybe I ain´t sure
about the second part of the Chorus Fill, but all the other parts are like that.
Plus I´ve made a standard tuning version, just post a comment for me to submit it
and I´ll do it.
Enjoy this tab y´all!

(I´m workin´ on Your Star Gtr pro =)) 
comments
We did not receive enough feedback on this tab! Please rate:
print report bad tab
1 2 3 4 5
3 comments total.
0 reply
Bristlehead 752 wrote on January 16 2007, 06:17 pm

You're missing the arpeggiated stuff in the verse, but no one will no the difference, so I gave you 5 stars. I'm gonna be recording all of the songs soon and putting em up on youtube because I hate people giving me flack for tunings and shit.

+1 reply
Luki Hovorka 64 wrote on January 20 2007, 02:12 pm

Thanks, I hate Earless people who do not hear a semitone difference :)

+2 reply
Jax_rOckGoddess 19 wrote on January 24 2007, 07:21 pm

nooo *cries* too much tuning!!! hahaha... oh well it looks good so ill take these tabs anywayss

I want to post or [tab]
guest
You may want to rate the tab now too:
select rating
Please do not post tabs as comments. Select "correction" instead!